ISO-10303-21;
HEADER;
FILE_DESCRIPTION (( 'STEP AP203' ),
    '1' );
FILE_NAME ('T73102.STEP',
    '2018-08-23T07:27:43',
    ( '' ),
    ( '' ),
    'SwSTEP 2.0',
    'SolidWorks 2016',
    '' );
FILE_SCHEMA (( 'CONFIG_CONTROL_DESIGN' ));
ENDSEC;

DATA;
#1 = EDGE_LOOP ( 'NONE', ( #240, #186, #151, #163 ) ) ;
#2 = CARTESIAN_POINT ( 'NONE',  ( 0.0000000000000000000, 6.599999999999999600, 0.0000000000000000000 ) ) ;
#3 = DATE_AND_TIME ( #320, #295 ) ;
#4 = CARTESIAN_POINT ( 'NONE',  ( 0.0000000000000000000, 0.0000000000000000000, 0.0000000000000000000 ) ) ;
#5 = AXIS2_PLACEMENT_3D ( 'NONE', #323, #267, #302 ) ;
#6 = APPLICATION_CONTEXT ( 'configuration controlled 3d designs of mechanical parts and assemblies' ) ;
#7 = VERTEX_POINT ( 'NONE', #206 ) ;
#8 = ORIENTED_EDGE ( 'NONE', *, *, #24, .T. ) ;
#9 = FACE_OUTER_BOUND ( 'NONE', #319, .T. ) ;
#10 = CALENDAR_DATE ( 2018, 23, 8 ) ;
#11 = APPROVAL ( #272, 'UNSPECIFIED' ) ;
#12 = CIRCLE ( 'NONE', #167, 19.05000000000000100 ) ;
#13 = EDGE_CURVE ( 'NONE', #112, #318, #90, .T. ) ;
#14 = EDGE_LOOP ( 'NONE', ( #123, #88, #132, #111 ) ) ;
#15 = EDGE_CURVE ( 'NONE', #318, #35, #28, .T. ) ;
#16 = CARTESIAN_POINT ( 'NONE',  ( 0.0000000000000000000, 6.599999999999999600, -5.500000000000001800 ) ) ;
#17 = DIRECTION ( 'NONE',  ( -0.0000000000000000000, -1.000000000000000000, -0.0000000000000000000 ) ) ;
#18 = MECHANICAL_CONTEXT ( 'NONE', #6, 'mechanical' ) ;
#19 = DIRECTION ( 'NONE',  ( 0.0000000000000000000, 0.0000000000000000000, -1.000000000000000000 ) ) ;
#20 = DIRECTION ( 'NONE',  ( 0.0000000000000000000, 0.0000000000000000000, -1.000000000000000000 ) ) ;
#21 = VERTEX_POINT ( 'NONE', #233 ) ;
#22 = FACE_OUTER_BOUND ( 'NONE', #239, .T. ) ;
#23 = PLANE ( 'NONE',  #37 ) ;
#24 = EDGE_CURVE ( 'NONE', #112, #161, #294, .T. ) ;
#25 = DIRECTION ( 'NONE',  ( 0.0000000000000000000, 1.000000000000000000, 0.0000000000000000000 ) ) ;
#26 = CARTESIAN_POINT ( 'NONE',  ( 0.0000000000000000000, 0.0000000000000000000, -5.500000000000000900 ) ) ;
#27 = ADVANCED_FACE ( 'NONE', ( #87, #251 ), #59, .F. ) ;
#28 = CIRCLE ( 'NONE', #70, 5.500000000000000000 ) ;
#29 = CYLINDRICAL_SURFACE ( 'NONE', #238, 14.75000000000000200 ) ;
#30 = CARTESIAN_POINT ( 'NONE',  ( 0.0000000000000000000, 32.00000000000000000, -14.75000000000000400 ) ) ;
#31 = DATE_AND_TIME ( #68, #158 ) ;
#32 = CC_DESIGN_PERSON_AND_ORGANIZATION_ASSIGNMENT ( #253, #327, ( #230 ) ) ;
#33 = DIRECTION ( 'NONE',  ( 0.0000000000000000000, -0.0000000000000000000, 1.000000000000000000 ) ) ;
#34 = ORIENTED_EDGE ( 'NONE', *, *, #291, .T. ) ;
#35 = VERTEX_POINT ( 'NONE', #241 ) ;
#36 = APPROVAL_PERSON_ORGANIZATION ( #53, #11, #298 ) ;
#37 = AXIS2_PLACEMENT_3D ( 'NONE', #196, #297, #136 ) ;
#38 = EDGE_LOOP ( 'NONE', ( #106, #51, #313, #116 ) ) ;
#39 = FACE_BOUND ( 'NONE', #63, .T. ) ;
#40 = ORIENTED_EDGE ( 'NONE', *, *, #185, .F. ) ;
#41 = CIRCLE ( 'NONE', #142, 14.75000000000000000 ) ;
#42 = COORDINATED_UNIVERSAL_TIME_OFFSET ( 0, 0, .AHEAD. ) ;
#43 = APPLICATION_PROTOCOL_DEFINITION ( 'international standard', 'config_control_design', 1994, #6 ) ;
#44 = CC_DESIGN_PERSON_AND_ORGANIZATION_ASSIGNMENT ( #289, #303, ( #230 ) ) ;
#45 = AXIS2_PLACEMENT_3D ( 'NONE', #201, #25, #33 ) ;
#46 = APPROVAL_ROLE ( '' ) ;
#47 = ORIENTED_EDGE ( 'NONE', *, *, #102, .T. ) ;
#48 = APPROVAL_STATUS ( 'not_yet_approved' ) ;
#49 = DIRECTION ( 'NONE',  ( 0.0000000000000000000, 0.0000000000000000000, -1.000000000000000000 ) ) ;
#50 = CARTESIAN_POINT ( 'NONE',  ( 0.0000000000000000000, 6.599999999999999600, -14.75000000000000000 ) ) ;
#51 = ORIENTED_EDGE ( 'NONE', *, *, #271, .F. ) ;
#52 = ADVANCED_FACE ( 'NONE', ( #221 ), #29, .F. ) ;
#53 = PERSON_AND_ORGANIZATION ( #175, #326 ) ;
#54 = DIRECTION ( 'NONE',  ( -0.0000000000000000000, -1.000000000000000000, -0.0000000000000000000 ) ) ;
#55 = AXIS2_PLACEMENT_3D ( 'NONE', #2, #103, #305 ) ;
#56 = CARTESIAN_POINT ( 'NONE',  ( 2.332952152375708000E-015, 32.00000000000000000, 19.05000000000000100 ) ) ;
#57 = CLOSED_SHELL ( 'NONE', ( #148, #181, #309, #280, #225, #80, #27, #52, #179 ) ) ;
#58 = CARTESIAN_POINT ( 'NONE',  ( 0.0000000000000000000, 0.0000000000000000000, 0.0000000000000000000 ) ) ;
#59 = PLANE ( 'NONE',  #130 ) ;
#60 = ORIENTED_EDGE ( 'NONE', *, *, #202, .T. ) ;
#61 = COORDINATED_UNIVERSAL_TIME_OFFSET ( 0, 0, .AHEAD. ) ;
#62 = AXIS2_PLACEMENT_3D ( 'NONE', #249, #256, #311 ) ;
#63 = EDGE_LOOP ( 'NONE', ( #60, #8 ) ) ;
#64 = COORDINATED_UNIVERSAL_TIME_OFFSET ( 0, 0, .AHEAD. ) ;
#65 = AXIS2_PLACEMENT_3D ( 'NONE', #119, #321, #273 ) ;
#66 = ORIENTED_EDGE ( 'NONE', *, *, #127, .T. ) ;
#67 = CIRCLE ( 'NONE', #324, 19.05000000000000100 ) ;
#68 = CALENDAR_DATE ( 2018, 23, 8 ) ;
#69 = UNCERTAINTY_MEASURE_WITH_UNIT (LENGTH_MEASURE( 1.000000000000000100E-005 ), #180, 'distance_accuracy_value', 'NONE');
#70 = AXIS2_PLACEMENT_3D ( 'NONE', #85, #235, #231 ) ;
#71 = DIRECTION ( 'NONE',  ( 0.0000000000000000000, 0.0000000000000000000, 1.000000000000000000 ) ) ;
#72 = DIRECTION ( 'NONE',  ( -0.0000000000000000000, -1.000000000000000000, -0.0000000000000000000 ) ) ;
#73 = ORIENTED_EDGE ( 'NONE', *, *, #135, .F. ) ;
#74 = LINE ( 'NONE', #77, #214 ) ;
#75 = PERSON_AND_ORGANIZATION ( #175, #326 ) ;
#76 = CARTESIAN_POINT ( 'NONE',  ( 0.0000000000000000000, -1.659341609429321200E-015, 0.0000000000000000000 ) ) ;
#77 = CARTESIAN_POINT ( 'NONE',  ( 2.332952152375708000E-015, 0.0000000000000000000, 19.05000000000000100 ) ) ;
#78 = CIRCLE ( 'NONE', #110, 5.500000000000000000 ) ;
#79 = CC_DESIGN_APPROVAL ( #11, ( #230 ) ) ;
#80 = ADVANCED_FACE ( 'NONE', ( #187 ), #226, .T. ) ;
#81 = PRODUCT_DEFINITION_SHAPE ( 'NONE', 'NONE',  #255 ) ;
#82 = EDGE_CURVE ( 'NONE', #236, #250, #293, .T. ) ;
#83 = EDGE_LOOP ( 'NONE', ( #306, #259 ) ) ;
#84 = CIRCLE ( 'NONE', #153, 14.75000000000000000 ) ;
#85 = CARTESIAN_POINT ( 'NONE',  ( 0.0000000000000000000, 5.843451037203989900E-016, 0.0000000000000000000 ) ) ;
#86 = AXIS2_PLACEMENT_3D ( 'NONE', #229, #200, #258 ) ;
#87 = FACE_OUTER_BOUND ( 'NONE', #245, .T. ) ;
#88 = ORIENTED_EDGE ( 'NONE', *, *, #316, .T. ) ;
#89 = FACE_BOUND ( 'NONE', #287, .T. ) ;
#90 = LINE ( 'NONE', #104, #157 ) ;
#91 = CIRCLE ( 'NONE', #126, 14.75000000000000400 ) ;
#92 = CARTESIAN_POINT ( 'NONE',  ( 0.0000000000000000000, 0.0000000000000000000, 0.0000000000000000000 ) ) ;
#93 = CC_DESIGN_APPROVAL ( #149, ( #244 ) ) ;
#94 = EDGE_CURVE ( 'NONE', #21, #232, #171, .T. ) ;
#95 = DIRECTION ( 'NONE',  ( 0.0000000000000000000, 0.0000000000000000000, -1.000000000000000000 ) ) ;
#96 = ORIENTED_EDGE ( 'NONE', *, *, #102, .F. ) ;
#97 = DIRECTION ( 'NONE',  ( 0.0000000000000000000, 0.0000000000000000000, -1.000000000000000000 ) ) ;
#98 = CARTESIAN_POINT ( 'NONE',  ( 0.0000000000000000000, 32.00000000000000000, 0.0000000000000000000 ) ) ;
#99 = EDGE_LOOP ( 'NONE', ( #213, #211, #292, #301 ) ) ;
#100 = CYLINDRICAL_SURFACE ( 'NONE', #160, 19.05000000000000100 ) ;
#101 = COORDINATED_UNIVERSAL_TIME_OFFSET ( 0, 0, .AHEAD. ) ;
#102 = EDGE_CURVE ( 'NONE', #184, #190, #12, .T. ) ;
#103 = DIRECTION ( 'NONE',  ( -0.0000000000000000000, -1.000000000000000000, -0.0000000000000000000 ) ) ;
#104 = CARTESIAN_POINT ( 'NONE',  ( 6.735557395310443000E-016, 0.0000000000000000000, 5.500000000000000900 ) ) ;
#105 = EDGE_CURVE ( 'NONE', #190, #7, #137, .T. ) ;
#106 = ORIENTED_EDGE ( 'NONE', *, *, #94, .F. ) ;
#107 = VECTOR ( 'NONE', #166, 1000.000000000000000 ) ;
#108 = PERSON_AND_ORGANIZATION ( #175, #326 ) ;
#109 = CC_DESIGN_SECURITY_CLASSIFICATION ( #244, ( #230 ) ) ;
#110 = AXIS2_PLACEMENT_3D ( 'NONE', #145, #216, #19 ) ;
#111 = ORIENTED_EDGE ( 'NONE', *, *, #105, .F. ) ;
#112 = VERTEX_POINT ( 'NONE', #296 ) ;
#113 = AXIS2_PLACEMENT_3D ( 'NONE', #76, #228, #254 ) ;
#114 = EDGE_CURVE ( 'NONE', #250, #232, #41, .T. ) ;
#115 = DIRECTION ( 'NONE',  ( -0.0000000000000000000, -1.000000000000000000, -0.0000000000000000000 ) ) ;
#116 = ORIENTED_EDGE ( 'NONE', *, *, #114, .T. ) ;
#117 = DIRECTION ( 'NONE',  ( -0.0000000000000000000, -1.000000000000000000, -0.0000000000000000000 ) ) ;
#118 = DIRECTION ( 'NONE',  ( -0.0000000000000000000, -1.000000000000000000, -0.0000000000000000000 ) ) ;
#119 = CARTESIAN_POINT ( 'NONE',  ( 0.0000000000000000000, 6.599999999999999600, 0.0000000000000000000 ) ) ;
#120 =( NAMED_UNIT ( * ) SI_UNIT ( $, .STERADIAN. ) SOLID_ANGLE_UNIT ( ) );
#121 = EDGE_CURVE ( 'NONE', #21, #236, #288, .T. ) ;
#122 = DATE_AND_TIME ( #10, #315 ) ;
#123 = ORIENTED_EDGE ( 'NONE', *, *, #264, .T. ) ;
#124 = PERSON_AND_ORGANIZATION ( #175, #326 ) ;
#125 = DIRECTION ( 'NONE',  ( -0.0000000000000000000, -1.000000000000000000, -0.0000000000000000000 ) ) ;
#126 = AXIS2_PLACEMENT_3D ( 'NONE', #98, #125, #176 ) ;
#127 = EDGE_CURVE ( 'NONE', #232, #250, #84, .T. ) ;
#128 = CYLINDRICAL_SURFACE ( 'NONE', #217, 14.75000000000000200 ) ;
#129 = COORDINATED_UNIVERSAL_TIME_OFFSET ( 0, 0, .AHEAD. ) ;
#130 = AXIS2_PLACEMENT_3D ( 'NONE', #138, #223, #97 ) ;
#131 = PERSON_AND_ORGANIZATION ( #175, #326 ) ;
#132 = ORIENTED_EDGE ( 'NONE', *, *, #291, .F. ) ;
#133 = FACE_OUTER_BOUND ( 'NONE', #1, .T. ) ;
#134 = PERSON_AND_ORGANIZATION ( #175, #326 ) ;
#135 = EDGE_CURVE ( 'NONE', #35, #318, #78, .T. ) ;
#136 = DIRECTION ( 'NONE',  ( 0.0000000000000000000, 0.0000000000000000000, -1.000000000000000000 ) ) ;
#137 = LINE ( 'NONE', #304, #234 ) ;
#138 = CARTESIAN_POINT ( 'NONE',  ( -19.05000000000000100, 32.00000000000000000, 0.0000000000000000000 ) ) ;
#139 = CC_DESIGN_PERSON_AND_ORGANIZATION_ASSIGNMENT ( #108, #329, ( #255 ) ) ;
#140 = APPROVAL_ROLE ( '' ) ;
#141 = DIRECTION ( 'NONE',  ( 0.0000000000000000000, 0.0000000000000000000, -1.000000000000000000 ) ) ;
#142 = AXIS2_PLACEMENT_3D ( 'NONE', #270, #118, #141 ) ;
#143 = SECURITY_CLASSIFICATION_LEVEL ( 'unclassified' ) ;
#144 = ORIENTED_EDGE ( 'NONE', *, *, #316, .F. ) ;
#145 = CARTESIAN_POINT ( 'NONE',  ( 0.0000000000000000000, 5.843451037203989900E-016, 0.0000000000000000000 ) ) ;
#146 = DIRECTION ( 'NONE',  ( -0.0000000000000000000, -1.000000000000000000, -0.0000000000000000000 ) ) ;
#147 = PRODUCT ( 'T73102', 'T73102', '', ( #18 ) ) ;
#148 = ADVANCED_FACE ( 'NONE', ( #162 ), #128, .F. ) ;
#149 = APPROVAL ( #48, 'UNSPECIFIED' ) ;
#150 = DIRECTION ( 'NONE',  ( 0.0000000000000000000, 0.0000000000000000000, -1.000000000000000000 ) ) ;
#151 = ORIENTED_EDGE ( 'NONE', *, *, #15, .T. ) ;
#152 = CIRCLE ( 'NONE', #113, 19.05000000000000100 ) ;
#153 = AXIS2_PLACEMENT_3D ( 'NONE', #168, #17, #275 ) ;
#154 = CARTESIAN_POINT ( 'NONE',  ( 6.735557395310443000E-016, 5.843451037203989900E-016, 5.500000000000000000 ) ) ;
#155 = ORIENTED_EDGE ( 'NONE', *, *, #127, .F. ) ;
#156 = FACE_OUTER_BOUND ( 'NONE', #14, .T. ) ;
#157 = VECTOR ( 'NONE', #285, 1000.000000000000000 ) ;
#158 = LOCAL_TIME ( 8, 27, 43.00000000000000000, #101 ) ;
#159 =( GEOMETRIC_REPRESENTATION_CONTEXT ( 3 ) GLOBAL_UNCERTAINTY_ASSIGNED_CONTEXT ( ( #69 ) ) GLOBAL_UNIT_ASSIGNED_CONTEXT ( ( #180, #282, #120 ) ) REPRESENTATION_CONTEXT ( 'NONE', 'WORKASPACE' ) );
#160 = AXIS2_PLACEMENT_3D ( 'NONE', #4, #146, #183 ) ;
#161 = VERTEX_POINT ( 'NONE', #16 ) ;
#162 = FACE_OUTER_BOUND ( 'NONE', #261, .T. ) ;
#163 = ORIENTED_EDGE ( 'NONE', *, *, #310, .F. ) ;
#164 = DATE_AND_TIME ( #188, #227 ) ;
#165 = CC_DESIGN_DATE_AND_TIME_ASSIGNMENT ( #164, #195, ( #244 ) ) ;
#166 = DIRECTION ( 'NONE',  ( -0.0000000000000000000, -1.000000000000000000, -0.0000000000000000000 ) ) ;
#167 = AXIS2_PLACEMENT_3D ( 'NONE', #169, #115, #20 ) ;
#168 = CARTESIAN_POINT ( 'NONE',  ( 0.0000000000000000000, 6.599999999999999600, 0.0000000000000000000 ) ) ;
#169 = CARTESIAN_POINT ( 'NONE',  ( 0.0000000000000000000, 32.00000000000000000, 0.0000000000000000000 ) ) ;
#170 = ORIENTED_EDGE ( 'NONE', *, *, #105, .T. ) ;
#171 = LINE ( 'NONE', #218, #277 ) ;
#172 = APPLICATION_PROTOCOL_DEFINITION ( 'international standard', 'config_control_design', 1994, #246 ) ;
#173 = CARTESIAN_POINT ( 'NONE',  ( 0.0000000000000000000, 0.0000000000000000000, 0.0000000000000000000 ) ) ;
#174 = EDGE_LOOP ( 'NONE', ( #144, #47, #170, #40 ) ) ;
#175 = PERSON ( 'UNSPECIFIED', 'UNSPECIFIED', 'UNSPECIFIED', ('UNSPECIFIED'), ('UNSPECIFIED'), ('UNSPECIFIED') ) ;
#176 = DIRECTION ( 'NONE',  ( 0.0000000000000000000, 0.0000000000000000000, -1.000000000000000000 ) ) ;
#177 = CALENDAR_DATE ( 2018, 23, 8 ) ;
#178 = CARTESIAN_POINT ( 'NONE',  ( 1.806354028742346200E-015, 6.599999999999999600, 14.75000000000000000 ) ) ;
#179 = ADVANCED_FACE ( 'NONE', ( #9, #39 ), #23, .F. ) ;
#180 =( LENGTH_UNIT ( ) NAMED_UNIT ( * ) SI_UNIT ( .MILLI., .METRE. ) );
#181 = ADVANCED_FACE ( 'NONE', ( #156 ), #100, .T. ) ;
#182 = CC_DESIGN_APPROVAL ( #268, ( #255 ) ) ;
#183 = DIRECTION ( 'NONE',  ( 0.0000000000000000000, 0.0000000000000000000, -1.000000000000000000 ) ) ;
#184 = VERTEX_POINT ( 'NONE', #56 ) ;
#185 = EDGE_CURVE ( 'NONE', #314, #7, #212, .T. ) ;
#186 = ORIENTED_EDGE ( 'NONE', *, *, #13, .T. ) ;
#187 = FACE_OUTER_BOUND ( 'NONE', #174, .T. ) ;
#188 = CALENDAR_DATE ( 2018, 23, 8 ) ;
#189 = PRODUCT_RELATED_PRODUCT_CATEGORY ( 'detail', '', ( #147 ) ) ;
#190 = VERTEX_POINT ( 'NONE', #199 ) ;
#191 = VECTOR ( 'NONE', #278, 1000.000000000000000 ) ;
#192 = APPROVAL_DATE_TIME ( #260, #268 ) ;
#193 = CARTESIAN_POINT ( 'NONE',  ( 0.0000000000000000000, 0.0000000000000000000, -14.75000000000000200 ) ) ;
#194 = ORIENTED_EDGE ( 'NONE', *, *, #94, .T. ) ;
#195 = DATE_TIME_ROLE ( 'classification_date' ) ;
#196 = CARTESIAN_POINT ( 'NONE',  ( -14.75000000000000000, 6.599999999999999600, 0.0000000000000000000 ) ) ;
#197 = ORIENTED_EDGE ( 'NONE', *, *, #82, .F. ) ;
#198 = LOCAL_TIME ( 8, 27, 43.00000000000000000, #64 ) ;
#199 = CARTESIAN_POINT ( 'NONE',  ( 0.0000000000000000000, 32.00000000000000000, -19.05000000000000100 ) ) ;
#200 = DIRECTION ( 'NONE',  ( -0.0000000000000000000, -1.000000000000000000, -0.0000000000000000000 ) ) ;
#201 = CARTESIAN_POINT ( 'NONE',  ( -5.500000000000000000, -5.374982528544610200E-016, 0.0000000000000000000 ) ) ;
#202 = EDGE_CURVE ( 'NONE', #161, #112, #269, .T. ) ;
#203 = FACE_OUTER_BOUND ( 'NONE', #99, .T. ) ;
#204 = CARTESIAN_POINT ( 'NONE',  ( 0.0000000000000000000, 0.0000000000000000000, 0.0000000000000000000 ) ) ;
#205 = CARTESIAN_POINT ( 'NONE',  ( 2.332952152375708000E-015, -1.659341609429321200E-015, 19.05000000000000100 ) ) ;
#206 = CARTESIAN_POINT ( 'NONE',  ( 0.0000000000000000000, -1.659341609429321200E-015, -19.05000000000000100 ) ) ;
#207 = ORIENTED_EDGE ( 'NONE', *, *, #121, .F. ) ;
#208 = CYLINDRICAL_SURFACE ( 'NONE', #62, 5.500000000000000900 ) ;
#209 = SHAPE_DEFINITION_REPRESENTATION ( #81, #263 ) ;
#210 = CC_DESIGN_DATE_AND_TIME_ASSIGNMENT ( #122, #219, ( #255 ) ) ;
#211 = ORIENTED_EDGE ( 'NONE', *, *, #202, .F. ) ;
#212 = CIRCLE ( 'NONE', #86, 19.05000000000000100 ) ;
#213 = ORIENTED_EDGE ( 'NONE', *, *, #13, .F. ) ;
#214 = VECTOR ( 'NONE', #279, 1000.000000000000000 ) ;
#215 = APPROVAL_DATE_TIME ( #31, #149 ) ;
#216 = DIRECTION ( 'NONE',  ( -0.0000000000000000000, -1.000000000000000000, -0.0000000000000000000 ) ) ;
#217 = AXIS2_PLACEMENT_3D ( 'NONE', #328, #247, #95 ) ;
#218 = CARTESIAN_POINT ( 'NONE',  ( 1.806354028742346200E-015, 0.0000000000000000000, 14.75000000000000200 ) ) ;
#219 = DATE_TIME_ROLE ( 'creation_date' ) ;
#220 = ORIENTED_EDGE ( 'NONE', *, *, #15, .F. ) ;
#221 = FACE_OUTER_BOUND ( 'NONE', #38, .T. ) ;
#222 = DIRECTION ( 'NONE',  ( -0.0000000000000000000, -1.000000000000000000, -0.0000000000000000000 ) ) ;
#223 = DIRECTION ( 'NONE',  ( 0.0000000000000000000, -1.000000000000000000, -0.0000000000000000000 ) ) ;
#224 = CARTESIAN_POINT ( 'NONE',  ( 0.0000000000000000000, 32.00000000000000000, 0.0000000000000000000 ) ) ;
#225 = ADVANCED_FACE ( 'NONE', ( #89, #22 ), #252, .F. ) ;
#226 = CYLINDRICAL_SURFACE ( 'NONE', #257, 19.05000000000000100 ) ;
#227 = LOCAL_TIME ( 8, 27, 43.00000000000000000, #129 ) ;
#228 = DIRECTION ( 'NONE',  ( -0.0000000000000000000, -1.000000000000000000, -0.0000000000000000000 ) ) ;
#229 = CARTESIAN_POINT ( 'NONE',  ( 0.0000000000000000000, -1.659341609429321200E-015, 0.0000000000000000000 ) ) ;
#230 = PRODUCT_DEFINITION_FORMATION_WITH_SPECIFIED_SOURCE ( 'ANY', '', #147, .NOT_KNOWN. ) ;
#231 = DIRECTION ( 'NONE',  ( 0.0000000000000000000, 0.0000000000000000000, -1.000000000000000000 ) ) ;
#232 = VERTEX_POINT ( 'NONE', #178 ) ;
#233 = CARTESIAN_POINT ( 'NONE',  ( 1.806354028742346600E-015, 32.00000000000000000, 14.75000000000000400 ) ) ;
#234 = VECTOR ( 'NONE', #299, 1000.000000000000000 ) ;
#235 = DIRECTION ( 'NONE',  ( -0.0000000000000000000, -1.000000000000000000, -0.0000000000000000000 ) ) ;
#236 = VERTEX_POINT ( 'NONE', #30 ) ;
#237 = APPROVAL_DATE_TIME ( #3, #11 ) ;
#238 = AXIS2_PLACEMENT_3D ( 'NONE', #173, #72, #243 ) ;
#239 = EDGE_LOOP ( 'NONE', ( #34, #276 ) ) ;
#240 = ORIENTED_EDGE ( 'NONE', *, *, #24, .F. ) ;
#241 = CARTESIAN_POINT ( 'NONE',  ( 0.0000000000000000000, 5.843451037203989900E-016, -5.500000000000000000 ) ) ;
#242 = DIRECTION ( 'NONE',  ( 1.000000000000000000, 0.0000000000000000000, 0.0000000000000000000 ) ) ;
#243 = DIRECTION ( 'NONE',  ( 0.0000000000000000000, 0.0000000000000000000, -1.000000000000000000 ) ) ;
#244 = SECURITY_CLASSIFICATION ( '', '', #143 ) ;
#245 = EDGE_LOOP ( 'NONE', ( #265, #96 ) ) ;
#246 = APPLICATION_CONTEXT ( 'configuration controlled 3d designs of mechanical parts and assemblies' ) ;
#247 = DIRECTION ( 'NONE',  ( -0.0000000000000000000, -1.000000000000000000, -0.0000000000000000000 ) ) ;
#248 = PERSON_AND_ORGANIZATION_ROLE ( 'design_owner' ) ;
#249 = CARTESIAN_POINT ( 'NONE',  ( 0.0000000000000000000, 0.0000000000000000000, 0.0000000000000000000 ) ) ;
#250 = VERTEX_POINT ( 'NONE', #50 ) ;
#251 = FACE_BOUND ( 'NONE', #83, .T. ) ;
#252 = PLANE ( 'NONE',  #45 ) ;
#253 = PERSON_AND_ORGANIZATION ( #175, #326 ) ;
#254 = DIRECTION ( 'NONE',  ( 0.0000000000000000000, 0.0000000000000000000, -1.000000000000000000 ) ) ;
#255 = PRODUCT_DEFINITION ( 'UNKNOWN', '', #230, #312 ) ;
#256 = DIRECTION ( 'NONE',  ( -0.0000000000000000000, -1.000000000000000000, -0.0000000000000000000 ) ) ;
#257 = AXIS2_PLACEMENT_3D ( 'NONE', #92, #222, #49 ) ;
#258 = DIRECTION ( 'NONE',  ( 0.0000000000000000000, 0.0000000000000000000, -1.000000000000000000 ) ) ;
#259 = ORIENTED_EDGE ( 'NONE', *, *, #121, .T. ) ;
#260 = DATE_AND_TIME ( #177, #198 ) ;
#261 = EDGE_LOOP ( 'NONE', ( #207, #194, #66, #197 ) ) ;
#262 = APPROVAL_PERSON_ORGANIZATION ( #131, #268, #46 ) ;
#263 = ADVANCED_BREP_SHAPE_REPRESENTATION ( 'T73102', ( #317, #307 ), #159 ) ;
#264 = EDGE_CURVE ( 'NONE', #190, #184, #67, .T. ) ;
#265 = ORIENTED_EDGE ( 'NONE', *, *, #264, .F. ) ;
#266 = APPROVAL_PERSON_ORGANIZATION ( #75, #149, #140 ) ;
#267 = DIRECTION ( 'NONE',  ( -0.0000000000000000000, -1.000000000000000000, -0.0000000000000000000 ) ) ;
#268 = APPROVAL ( #274, 'UNSPECIFIED' ) ;
#269 = CIRCLE ( 'NONE', #55, 5.500000000000001800 ) ;
#270 = CARTESIAN_POINT ( 'NONE',  ( 0.0000000000000000000, 6.599999999999999600, 0.0000000000000000000 ) ) ;
#271 = EDGE_CURVE ( 'NONE', #236, #21, #91, .T. ) ;
#272 = APPROVAL_STATUS ( 'not_yet_approved' ) ;
#273 = DIRECTION ( 'NONE',  ( 0.0000000000000000000, 0.0000000000000000000, -1.000000000000000000 ) ) ;
#274 = APPROVAL_STATUS ( 'not_yet_approved' ) ;
#275 = DIRECTION ( 'NONE',  ( 0.0000000000000000000, 0.0000000000000000000, -1.000000000000000000 ) ) ;
#276 = ORIENTED_EDGE ( 'NONE', *, *, #185, .T. ) ;
#277 = VECTOR ( 'NONE', #117, 1000.000000000000000 ) ;
#278 = DIRECTION ( 'NONE',  ( -0.0000000000000000000, -1.000000000000000000, -0.0000000000000000000 ) ) ;
#279 = DIRECTION ( 'NONE',  ( -0.0000000000000000000, -1.000000000000000000, -0.0000000000000000000 ) ) ;
#280 = ADVANCED_FACE ( 'NONE', ( #203 ), #208, .F. ) ;
#281 = CYLINDRICAL_SURFACE ( 'NONE', #290, 5.500000000000000900 ) ;
#282 =( NAMED_UNIT ( * ) PLANE_ANGLE_UNIT ( ) SI_UNIT ( $, .RADIAN. ) );
#283 = DIRECTION ( 'NONE',  ( 0.0000000000000000000, 0.0000000000000000000, -1.000000000000000000 ) ) ;
#284 = CC_DESIGN_PERSON_AND_ORGANIZATION_ASSIGNMENT ( #134, #300, ( #244 ) ) ;
#285 = DIRECTION ( 'NONE',  ( -0.0000000000000000000, -1.000000000000000000, -0.0000000000000000000 ) ) ;
#286 = LINE ( 'NONE', #26, #191 ) ;
#287 = EDGE_LOOP ( 'NONE', ( #73, #220 ) ) ;
#288 = CIRCLE ( 'NONE', #5, 14.75000000000000400 ) ;
#289 = PERSON_AND_ORGANIZATION ( #175, #326 ) ;
#290 = AXIS2_PLACEMENT_3D ( 'NONE', #204, #308, #150 ) ;
#291 = EDGE_CURVE ( 'NONE', #7, #314, #152, .T. ) ;
#292 = ORIENTED_EDGE ( 'NONE', *, *, #310, .T. ) ;
#293 = LINE ( 'NONE', #193, #107 ) ;
#294 = CIRCLE ( 'NONE', #65, 5.500000000000001800 ) ;
#295 = LOCAL_TIME ( 8, 27, 43.00000000000000000, #42 ) ;
#296 = CARTESIAN_POINT ( 'NONE',  ( 6.735557395310445000E-016, 6.599999999999999600, 5.500000000000001800 ) ) ;
#297 = DIRECTION ( 'NONE',  ( 0.0000000000000000000, -1.000000000000000000, -0.0000000000000000000 ) ) ;
#298 = APPROVAL_ROLE ( '' ) ;
#299 = DIRECTION ( 'NONE',  ( -0.0000000000000000000, -1.000000000000000000, -0.0000000000000000000 ) ) ;
#300 = PERSON_AND_ORGANIZATION_ROLE ( 'classification_officer' ) ;
#301 = ORIENTED_EDGE ( 'NONE', *, *, #135, .T. ) ;
#302 = DIRECTION ( 'NONE',  ( 0.0000000000000000000, 0.0000000000000000000, -1.000000000000000000 ) ) ;
#303 = PERSON_AND_ORGANIZATION_ROLE ( 'design_supplier' ) ;
#304 = CARTESIAN_POINT ( 'NONE',  ( 0.0000000000000000000, 0.0000000000000000000, -19.05000000000000100 ) ) ;
#305 = DIRECTION ( 'NONE',  ( 0.0000000000000000000, 0.0000000000000000000, -1.000000000000000000 ) ) ;
#306 = ORIENTED_EDGE ( 'NONE', *, *, #271, .T. ) ;
#307 = AXIS2_PLACEMENT_3D ( 'NONE', #58, #71, #242 ) ;
#308 = DIRECTION ( 'NONE',  ( -0.0000000000000000000, -1.000000000000000000, -0.0000000000000000000 ) ) ;
#309 = ADVANCED_FACE ( 'NONE', ( #133 ), #281, .F. ) ;
#310 = EDGE_CURVE ( 'NONE', #161, #35, #286, .T. ) ;
#311 = DIRECTION ( 'NONE',  ( 0.0000000000000000000, 0.0000000000000000000, -1.000000000000000000 ) ) ;
#312 = DESIGN_CONTEXT ( 'detailed design', #246, 'design' ) ;
#313 = ORIENTED_EDGE ( 'NONE', *, *, #82, .T. ) ;
#314 = VERTEX_POINT ( 'NONE', #205 ) ;
#315 = LOCAL_TIME ( 8, 27, 43.00000000000000000, #61 ) ;
#316 = EDGE_CURVE ( 'NONE', #184, #314, #74, .T. ) ;
#317 = MANIFOLD_SOLID_BREP ( 'Revolve1', #57 ) ;
#318 = VERTEX_POINT ( 'NONE', #154 ) ;
#319 = EDGE_LOOP ( 'NONE', ( #325, #155 ) ) ;
#320 = CALENDAR_DATE ( 2018, 23, 8 ) ;
#321 = DIRECTION ( 'NONE',  ( -0.0000000000000000000, -1.000000000000000000, -0.0000000000000000000 ) ) ;
#322 = CC_DESIGN_PERSON_AND_ORGANIZATION_ASSIGNMENT ( #124, #248, ( #147 ) ) ;
#323 = CARTESIAN_POINT ( 'NONE',  ( 0.0000000000000000000, 32.00000000000000000, 0.0000000000000000000 ) ) ;
#324 = AXIS2_PLACEMENT_3D ( 'NONE', #224, #54, #283 ) ;
#325 = ORIENTED_EDGE ( 'NONE', *, *, #114, .F. ) ;
#326 = ORGANIZATION ( 'UNSPECIFIED', 'UNSPECIFIED', '' ) ;
#327 = PERSON_AND_ORGANIZATION_ROLE ( 'creator' ) ;
#328 = CARTESIAN_POINT ( 'NONE',  ( 0.0000000000000000000, 0.0000000000000000000, 0.0000000000000000000 ) ) ;
#329 = PERSON_AND_ORGANIZATION_ROLE ( 'creator' ) ;
ENDSEC;
END-ISO-10303-21;
