ISO-10303-21;
HEADER;
FILE_DESCRIPTION (( 'STEP AP203' ),
    '1' );
FILE_NAME ('T24015.STEP',
    '2018-07-17T10:12:53',
    ( '' ),
    ( '' ),
    'SwSTEP 2.0',
    'SolidWorks 2016',
    '' );
FILE_SCHEMA (( 'CONFIG_CONTROL_DESIGN' ));
ENDSEC;

DATA;
#1 = CARTESIAN_POINT ( 'NONE',  ( 750.0000000000000000, 0.0000000000000000000, 19.00000000000000400 ) ) ;
#2 = CARTESIAN_POINT ( 'NONE',  ( 750.0000000000000000, 2.326828918379971400E-015, -19.00000000000000400 ) ) ;
#3 = AXIS2_PLACEMENT_3D ( 'NONE', #97, #113, #54 ) ;
#4 = COORDINATED_UNIVERSAL_TIME_OFFSET ( 0, 0, .AHEAD. ) ;
#5 = DIRECTION ( 'NONE',  ( 1.000000000000000000, 0.0000000000000000000, 0.0000000000000000000 ) ) ;
#6 =( NAMED_UNIT ( * ) PLANE_ANGLE_UNIT ( ) SI_UNIT ( $, .RADIAN. ) );
#7 = CC_DESIGN_DATE_AND_TIME_ASSIGNMENT ( #34, #144, ( #87 ) ) ;
#8 = CARTESIAN_POINT ( 'NONE',  ( 750.0000000000000000, 0.0000000000000000000, 24.00000000000000400 ) ) ;
#9 = ORIENTED_EDGE ( 'NONE', *, *, #170, .F. ) ;
#10 = EDGE_CURVE ( 'NONE', #121, #19, #176, .T. ) ;
#11 = FACE_OUTER_BOUND ( 'NONE', #64, .T. ) ;
#12 = CLOSED_SHELL ( 'NONE', ( #183, #29, #207, #45, #191, #168 ) ) ;
#13 = DIRECTION ( 'NONE',  ( 0.0000000000000000000, 0.0000000000000000000, -1.000000000000000000 ) ) ;
#14 = APPROVAL ( #136, 'UNSPECIFIED' ) ;
#15 = ORIENTED_EDGE ( 'NONE', *, *, #243, .T. ) ;
#16 = PERSON_AND_ORGANIZATION ( #118, #20 ) ;
#17 = CYLINDRICAL_SURFACE ( 'NONE', #90, 19.00000000000000400 ) ;
#18 = AXIS2_PLACEMENT_3D ( 'NONE', #62, #82, #44 ) ;
#19 = VERTEX_POINT ( 'NONE', #240 ) ;
#20 = ORGANIZATION ( 'UNSPECIFIED', 'UNSPECIFIED', '' ) ;
#21 = DIRECTION ( 'NONE',  ( 1.000000000000000000, 0.0000000000000000000, 0.0000000000000000000 ) ) ;
#22 = DIRECTION ( 'NONE',  ( -1.000000000000000000, -0.0000000000000000000, -0.0000000000000000000 ) ) ;
#23 = EDGE_CURVE ( 'NONE', #19, #69, #174, .T. ) ;
#24 = ORIENTED_EDGE ( 'NONE', *, *, #10, .T. ) ;
#25 = DIRECTION ( 'NONE',  ( 0.0000000000000000000, 0.0000000000000000000, -1.000000000000000000 ) ) ;
#26 = VECTOR ( 'NONE', #22, 1000.000000000000000 ) ;
#27 = ORIENTED_EDGE ( 'NONE', *, *, #150, .T. ) ;
#28 = APPROVAL_PERSON_ORGANIZATION ( #117, #110, #247 ) ;
#29 = ADVANCED_FACE ( 'NONE', ( #197 ), #234, .T. ) ;
#30 = VERTEX_POINT ( 'NONE', #89 ) ;
#31 = CALENDAR_DATE ( 2018, 17, 7 ) ;
#32 = DIRECTION ( 'NONE',  ( -1.000000000000000000, -0.0000000000000000000, -0.0000000000000000000 ) ) ;
#33 = EDGE_CURVE ( 'NONE', #69, #55, #128, .T. ) ;
#34 = DATE_AND_TIME ( #31, #195 ) ;
#35 = DIRECTION ( 'NONE',  ( 0.0000000000000000000, 0.0000000000000000000, -1.000000000000000000 ) ) ;
#36 = DIRECTION ( 'NONE',  ( -1.000000000000000000, -0.0000000000000000000, -0.0000000000000000000 ) ) ;
#37 = APPROVAL_DATE_TIME ( #172, #193 ) ;
#38 = CARTESIAN_POINT ( 'NONE',  ( 750.0000000000000000, 0.0000000000000000000, 0.0000000000000000000 ) ) ;
#39 = CARTESIAN_POINT ( 'NONE',  ( 750.0000000000000000, 2.326828918379971400E-015, -19.00000000000000400 ) ) ;
#40 = ORIENTED_EDGE ( 'NONE', *, *, #102, .F. ) ;
#41 = MECHANICAL_CONTEXT ( 'NONE', #219, 'mechanical' ) ;
#42 = APPROVAL_ROLE ( '' ) ;
#43 = FACE_OUTER_BOUND ( 'NONE', #47, .T. ) ;
#44 = DIRECTION ( 'NONE',  ( 0.0000000000000000000, 0.0000000000000000000, -1.000000000000000000 ) ) ;
#45 = ADVANCED_FACE ( 'NONE', ( #43, #51 ), #210, .F. ) ;
#46 = EDGE_CURVE ( 'NONE', #106, #72, #70, .T. ) ;
#47 = EDGE_LOOP ( 'NONE', ( #123, #152 ) ) ;
#48 = PERSON_AND_ORGANIZATION_ROLE ( 'design_supplier' ) ;
#49 = CALENDAR_DATE ( 2018, 17, 7 ) ;
#50 = AXIS2_PLACEMENT_3D ( 'NONE', #242, #32, #164 ) ;
#51 = FACE_BOUND ( 'NONE', #94, .T. ) ;
#52 = CARTESIAN_POINT ( 'NONE',  ( -750.0000000000000000, 0.0000000000000000000, 0.0000000000000000000 ) ) ;
#53 = DIRECTION ( 'NONE',  ( 0.0000000000000000000, 0.0000000000000000000, -1.000000000000000000 ) ) ;
#54 = DIRECTION ( 'NONE',  ( 0.0000000000000000000, 0.0000000000000000000, -1.000000000000000000 ) ) ;
#55 = VERTEX_POINT ( 'NONE', #204 ) ;
#56 = CARTESIAN_POINT ( 'NONE',  ( 750.0000000000000000, 0.0000000000000000000, 0.0000000000000000000 ) ) ;
#57 = AXIS2_PLACEMENT_3D ( 'NONE', #52, #68, #211 ) ;
#58 = FACE_OUTER_BOUND ( 'NONE', #161, .T. ) ;
#59 =( NAMED_UNIT ( * ) SI_UNIT ( $, .STERADIAN. ) SOLID_ANGLE_UNIT ( ) );
#60 = APPLICATION_PROTOCOL_DEFINITION ( 'international standard', 'config_control_design', 1994, #134 ) ;
#61 = PERSON_AND_ORGANIZATION ( #118, #20 ) ;
#62 = CARTESIAN_POINT ( 'NONE',  ( -750.0000000000000000, 0.0000000000000000000, 0.0000000000000000000 ) ) ;
#63 = AXIS2_PLACEMENT_3D ( 'NONE', #132, #130, #111 ) ;
#64 = EDGE_LOOP ( 'NONE', ( #24, #181 ) ) ;
#65 = CALENDAR_DATE ( 2018, 17, 7 ) ;
#66 = EDGE_CURVE ( 'NONE', #72, #83, #180, .T. ) ;
#67 = CYLINDRICAL_SURFACE ( 'NONE', #108, 19.00000000000000400 ) ;
#68 = DIRECTION ( 'NONE',  ( 1.000000000000000000, 0.0000000000000000000, 0.0000000000000000000 ) ) ;
#69 = VERTEX_POINT ( 'NONE', #178 ) ;
#70 = LINE ( 'NONE', #2, #26 ) ;
#71 = CARTESIAN_POINT ( 'NONE',  ( 750.0000000000000000, 0.0000000000000000000, 0.0000000000000000000 ) ) ;
#72 = VERTEX_POINT ( 'NONE', #214 ) ;
#73 = DIRECTION ( 'NONE',  ( 1.000000000000000000, 0.0000000000000000000, 0.0000000000000000000 ) ) ;
#74 = DIRECTION ( 'NONE',  ( 0.0000000000000000000, 0.0000000000000000000, 1.000000000000000000 ) ) ;
#75 = DESIGN_CONTEXT ( 'detailed design', #134, 'design' ) ;
#76 = CC_DESIGN_PERSON_AND_ORGANIZATION_ASSIGNMENT ( #127, #239, ( #235 ) ) ;
#77 = ORIENTED_EDGE ( 'NONE', *, *, #33, .T. ) ;
#78 = AXIS2_PLACEMENT_3D ( 'NONE', #141, #208, #13 ) ;
#79 = CYLINDRICAL_SURFACE ( 'NONE', #95, 24.00000000000000400 ) ;
#80 = DATE_TIME_ROLE ( 'creation_date' ) ;
#81 = AXIS2_PLACEMENT_3D ( 'NONE', #56, #73, #216 ) ;
#82 = DIRECTION ( 'NONE',  ( 1.000000000000000000, 0.0000000000000000000, 0.0000000000000000000 ) ) ;
#83 = VERTEX_POINT ( 'NONE', #227 ) ;
#84 = PLANE ( 'NONE',  #119 ) ;
#85 = PRODUCT_RELATED_PRODUCT_CATEGORY ( 'detail', '', ( #105 ) ) ;
#86 = FACE_OUTER_BOUND ( 'NONE', #126, .T. ) ;
#87 = SECURITY_CLASSIFICATION ( '', '', #165 ) ;
#88 = CALENDAR_DATE ( 2018, 17, 7 ) ;
#89 = CARTESIAN_POINT ( 'NONE',  ( 750.0000000000000000, 0.0000000000000000000, 19.00000000000000400 ) ) ;
#90 = AXIS2_PLACEMENT_3D ( 'NONE', #38, #93, #74 ) ;
#91 = DIRECTION ( 'NONE',  ( 0.0000000000000000000, 0.0000000000000000000, 1.000000000000000000 ) ) ;
#92 = APPROVAL_DATE_TIME ( #142, #14 ) ;
#93 = DIRECTION ( 'NONE',  ( -1.000000000000000000, -0.0000000000000000000, -0.0000000000000000000 ) ) ;
#94 = EDGE_LOOP ( 'NONE', ( #199, #101 ) ) ;
#95 = AXIS2_PLACEMENT_3D ( 'NONE', #71, #200, #91 ) ;
#96 = ORIENTED_EDGE ( 'NONE', *, *, #46, .T. ) ;
#97 = CARTESIAN_POINT ( 'NONE',  ( -750.0000000000000000, 0.0000000000000000000, 0.0000000000000000000 ) ) ;
#98 = DIRECTION ( 'NONE',  ( 0.0000000000000000000, 0.0000000000000000000, 1.000000000000000000 ) ) ;
#99 = COORDINATED_UNIVERSAL_TIME_OFFSET ( 0, 0, .AHEAD. ) ;
#100 = CARTESIAN_POINT ( 'NONE',  ( 750.0000000000000000, 0.0000000000000000000, 0.0000000000000000000 ) ) ;
#101 = ORIENTED_EDGE ( 'NONE', *, *, #66, .T. ) ;
#102 = EDGE_CURVE ( 'NONE', #19, #121, #238, .T. ) ;
#103 = UNCERTAINTY_MEASURE_WITH_UNIT (LENGTH_MEASURE( 1.000000000000000100E-005 ), #116, 'distance_accuracy_value', 'NONE');
#104 = COORDINATED_UNIVERSAL_TIME_OFFSET ( 0, 0, .AHEAD. ) ;
#105 = PRODUCT ( 'T24015', 'T24015', '', ( #41 ) ) ;
#106 = VERTEX_POINT ( 'NONE', #39 ) ;
#107 = PERSON_AND_ORGANIZATION ( #118, #20 ) ;
#108 = AXIS2_PLACEMENT_3D ( 'NONE', #202, #36, #229 ) ;
#109 = DIRECTION ( 'NONE',  ( 1.000000000000000000, 0.0000000000000000000, 0.0000000000000000000 ) ) ;
#110 = APPROVAL ( #173, 'UNSPECIFIED' ) ;
#111 = DIRECTION ( 'NONE',  ( 0.0000000000000000000, 0.0000000000000000000, -1.000000000000000000 ) ) ;
#112 = VECTOR ( 'NONE', #151, 1000.000000000000000 ) ;
#113 = DIRECTION ( 'NONE',  ( 1.000000000000000000, 0.0000000000000000000, 0.0000000000000000000 ) ) ;
#114 = AXIS2_PLACEMENT_3D ( 'NONE', #220, #98, #155 ) ;
#115 = PERSON_AND_ORGANIZATION_ROLE ( 'design_owner' ) ;
#116 =( LENGTH_UNIT ( ) NAMED_UNIT ( * ) SI_UNIT ( .MILLI., .METRE. ) );
#117 = PERSON_AND_ORGANIZATION ( #118, #20 ) ;
#118 = PERSON ( 'UNSPECIFIED', 'UNSPECIFIED', 'UNSPECIFIED', ('UNSPECIFIED'), ('UNSPECIFIED'), ('UNSPECIFIED') ) ;
#119 = AXIS2_PLACEMENT_3D ( 'NONE', #100, #5, #133 ) ;
#120 = ORIENTED_EDGE ( 'NONE', *, *, #243, .F. ) ;
#121 = VERTEX_POINT ( 'NONE', #248 ) ;
#122 = CC_DESIGN_SECURITY_CLASSIFICATION ( #87, ( #235 ) ) ;
#123 = ORIENTED_EDGE ( 'NONE', *, *, #150, .F. ) ;
#124 = VECTOR ( 'NONE', #184, 1000.000000000000000 ) ;
#125 = CARTESIAN_POINT ( 'NONE',  ( -750.0000000000000000, 0.0000000000000000000, 0.0000000000000000000 ) ) ;
#126 = EDGE_LOOP ( 'NONE', ( #169, #203, #233, #217 ) ) ;
#127 = PERSON_AND_ORGANIZATION ( #118, #20 ) ;
#128 = CIRCLE ( 'NONE', #140, 24.00000000000000400 ) ;
#129 = CC_DESIGN_APPROVAL ( #14, ( #235 ) ) ;
#130 = DIRECTION ( 'NONE',  ( 1.000000000000000000, 0.0000000000000000000, 0.0000000000000000000 ) ) ;
#131 = AXIS2_PLACEMENT_3D ( 'NONE', #236, #157, #25 ) ;
#132 = CARTESIAN_POINT ( 'NONE',  ( -750.0000000000000000, 0.0000000000000000000, 0.0000000000000000000 ) ) ;
#133 = DIRECTION ( 'NONE',  ( 0.0000000000000000000, 0.0000000000000000000, -1.000000000000000000 ) ) ;
#134 = APPLICATION_CONTEXT ( 'configuration controlled 3d designs of mechanical parts and assemblies' ) ;
#135 = LOCAL_TIME ( 11, 12, 53.00000000000000000, #104 ) ;
#136 = APPROVAL_STATUS ( 'not_yet_approved' ) ;
#137 = FACE_OUTER_BOUND ( 'NONE', #156, .T. ) ;
#138 = EDGE_CURVE ( 'NONE', #30, #83, #241, .T. ) ;
#139 = EDGE_LOOP ( 'NONE', ( #225, #9 ) ) ;
#140 = AXIS2_PLACEMENT_3D ( 'NONE', #125, #109, #35 ) ;
#141 = CARTESIAN_POINT ( 'NONE',  ( 750.0000000000000000, 0.0000000000000000000, 0.0000000000000000000 ) ) ;
#142 = DATE_AND_TIME ( #49, #162 ) ;
#143 = DIRECTION ( 'NONE',  ( -1.000000000000000000, -0.0000000000000000000, -0.0000000000000000000 ) ) ;
#144 = DATE_TIME_ROLE ( 'classification_date' ) ;
#145 = EDGE_LOOP ( 'NONE', ( #40, #194, #77, #120 ) ) ;
#146 = ORIENTED_EDGE ( 'NONE', *, *, #10, .F. ) ;
#147 =( GEOMETRIC_REPRESENTATION_CONTEXT ( 3 ) GLOBAL_UNCERTAINTY_ASSIGNED_CONTEXT ( ( #103 ) ) GLOBAL_UNIT_ASSIGNED_CONTEXT ( ( #116, #6, #59 ) ) REPRESENTATION_CONTEXT ( 'NONE', 'WORKASPACE' ) );
#148 = CARTESIAN_POINT ( 'NONE',  ( 750.0000000000000000, 0.0000000000000000000, 0.0000000000000000000 ) ) ;
#149 = DATE_AND_TIME ( #65, #196 ) ;
#150 = EDGE_CURVE ( 'NONE', #55, #69, #190, .T. ) ;
#151 = DIRECTION ( 'NONE',  ( -1.000000000000000000, -0.0000000000000000000, -0.0000000000000000000 ) ) ;
#152 = ORIENTED_EDGE ( 'NONE', *, *, #33, .F. ) ;
#153 = PRODUCT_DEFINITION_SHAPE ( 'NONE', 'NONE',  #175 ) ;
#154 = SHAPE_DEFINITION_REPRESENTATION ( #153, #160 ) ;
#155 = DIRECTION ( 'NONE',  ( 1.000000000000000000, 0.0000000000000000000, 0.0000000000000000000 ) ) ;
#156 = EDGE_LOOP ( 'NONE', ( #244, #146, #15, #27 ) ) ;
#157 = DIRECTION ( 'NONE',  ( 1.000000000000000000, 0.0000000000000000000, 0.0000000000000000000 ) ) ;
#158 = CC_DESIGN_PERSON_AND_ORGANIZATION_ASSIGNMENT ( #167, #115, ( #105 ) ) ;
#159 = APPROVAL_STATUS ( 'not_yet_approved' ) ;
#160 = ADVANCED_BREP_SHAPE_REPRESENTATION ( 'T24015', ( #189, #114 ), #147 ) ;
#161 = EDGE_LOOP ( 'NONE', ( #212, #96, #228, #245 ) ) ;
#162 = LOCAL_TIME ( 11, 12, 53.00000000000000000, #99 ) ;
#163 = CIRCLE ( 'NONE', #18, 19.00000000000000400 ) ;
#164 = DIRECTION ( 'NONE',  ( 0.0000000000000000000, 0.0000000000000000000, 1.000000000000000000 ) ) ;
#165 = SECURITY_CLASSIFICATION_LEVEL ( 'unclassified' ) ;
#166 = CARTESIAN_POINT ( 'NONE',  ( 750.0000000000000000, 2.939152317953648300E-015, -24.00000000000000400 ) ) ;
#167 = PERSON_AND_ORGANIZATION ( #118, #20 ) ;
#168 = ADVANCED_FACE ( 'NONE', ( #86 ), #67, .F. ) ;
#169 = ORIENTED_EDGE ( 'NONE', *, *, #46, .F. ) ;
#170 = EDGE_CURVE ( 'NONE', #106, #30, #201, .T. ) ;
#171 = APPROVAL_DATE_TIME ( #221, #110 ) ;
#172 = DATE_AND_TIME ( #88, #135 ) ;
#173 = APPROVAL_STATUS ( 'not_yet_approved' ) ;
#174 = LINE ( 'NONE', #166, #226 ) ;
#175 = PRODUCT_DEFINITION ( 'UNKNOWN', '', #235, #75 ) ;
#176 = CIRCLE ( 'NONE', #78, 24.00000000000000400 ) ;
#177 = COORDINATED_UNIVERSAL_TIME_OFFSET ( 0, 0, .AHEAD. ) ;
#178 = CARTESIAN_POINT ( 'NONE',  ( -750.0000000000000000, 2.939152317953648300E-015, -24.00000000000000400 ) ) ;
#179 = PERSON_AND_ORGANIZATION ( #118, #20 ) ;
#180 = CIRCLE ( 'NONE', #63, 19.00000000000000400 ) ;
#181 = ORIENTED_EDGE ( 'NONE', *, *, #102, .T. ) ;
#182 = APPLICATION_PROTOCOL_DEFINITION ( 'international standard', 'config_control_design', 1994, #219 ) ;
#183 = ADVANCED_FACE ( 'NONE', ( #58 ), #17, .F. ) ;
#184 = DIRECTION ( 'NONE',  ( -1.000000000000000000, -0.0000000000000000000, -0.0000000000000000000 ) ) ;
#185 = LOCAL_TIME ( 11, 12, 53.00000000000000000, #246 ) ;
#186 = PERSON_AND_ORGANIZATION_ROLE ( 'classification_officer' ) ;
#187 = APPROVAL_ROLE ( '' ) ;
#188 = CC_DESIGN_APPROVAL ( #110, ( #87 ) ) ;
#189 = MANIFOLD_SOLID_BREP ( 'Extrude-Thin1', #12 ) ;
#190 = CIRCLE ( 'NONE', #3, 24.00000000000000400 ) ;
#191 = ADVANCED_FACE ( 'NONE', ( #137 ), #79, .T. ) ;
#192 = CC_DESIGN_PERSON_AND_ORGANIZATION_ASSIGNMENT ( #107, #186, ( #87 ) ) ;
#193 = APPROVAL ( #159, 'UNSPECIFIED' ) ;
#194 = ORIENTED_EDGE ( 'NONE', *, *, #23, .T. ) ;
#195 = LOCAL_TIME ( 11, 12, 53.00000000000000000, #177 ) ;
#196 = LOCAL_TIME ( 11, 12, 53.00000000000000000, #4 ) ;
#197 = FACE_OUTER_BOUND ( 'NONE', #145, .T. ) ;
#198 = CC_DESIGN_PERSON_AND_ORGANIZATION_ASSIGNMENT ( #230, #48, ( #235 ) ) ;
#199 = ORIENTED_EDGE ( 'NONE', *, *, #232, .T. ) ;
#200 = DIRECTION ( 'NONE',  ( -1.000000000000000000, -0.0000000000000000000, -0.0000000000000000000 ) ) ;
#201 = CIRCLE ( 'NONE', #81, 19.00000000000000400 ) ;
#202 = CARTESIAN_POINT ( 'NONE',  ( 750.0000000000000000, 0.0000000000000000000, 0.0000000000000000000 ) ) ;
#203 = ORIENTED_EDGE ( 'NONE', *, *, #170, .T. ) ;
#204 = CARTESIAN_POINT ( 'NONE',  ( -750.0000000000000000, 0.0000000000000000000, 24.00000000000000400 ) ) ;
#205 = PERSON_AND_ORGANIZATION_ROLE ( 'creator' ) ;
#206 = CC_DESIGN_APPROVAL ( #193, ( #175 ) ) ;
#207 = ADVANCED_FACE ( 'NONE', ( #11, #231 ), #84, .T. ) ;
#208 = DIRECTION ( 'NONE',  ( 1.000000000000000000, 0.0000000000000000000, 0.0000000000000000000 ) ) ;
#209 = CIRCLE ( 'NONE', #131, 19.00000000000000400 ) ;
#210 = PLANE ( 'NONE',  #57 ) ;
#211 = DIRECTION ( 'NONE',  ( 0.0000000000000000000, 0.0000000000000000000, -1.000000000000000000 ) ) ;
#212 = ORIENTED_EDGE ( 'NONE', *, *, #249, .T. ) ;
#213 = APPROVAL_PERSON_ORGANIZATION ( #61, #193, #42 ) ;
#214 = CARTESIAN_POINT ( 'NONE',  ( -750.0000000000000000, 2.326828918379971400E-015, -19.00000000000000400 ) ) ;
#215 = CC_DESIGN_PERSON_AND_ORGANIZATION_ASSIGNMENT ( #179, #205, ( #175 ) ) ;
#216 = DIRECTION ( 'NONE',  ( 0.0000000000000000000, 0.0000000000000000000, -1.000000000000000000 ) ) ;
#217 = ORIENTED_EDGE ( 'NONE', *, *, #66, .F. ) ;
#218 = APPROVAL_PERSON_ORGANIZATION ( #16, #14, #187 ) ;
#219 = APPLICATION_CONTEXT ( 'configuration controlled 3d designs of mechanical parts and assemblies' ) ;
#220 = CARTESIAN_POINT ( 'NONE',  ( 0.0000000000000000000, 0.0000000000000000000, 0.0000000000000000000 ) ) ;
#221 = DATE_AND_TIME ( #222, #185 ) ;
#222 = CALENDAR_DATE ( 2018, 17, 7 ) ;
#223 = CC_DESIGN_DATE_AND_TIME_ASSIGNMENT ( #149, #80, ( #175 ) ) ;
#224 = LINE ( 'NONE', #8, #124 ) ;
#225 = ORIENTED_EDGE ( 'NONE', *, *, #249, .F. ) ;
#226 = VECTOR ( 'NONE', #143, 1000.000000000000000 ) ;
#227 = CARTESIAN_POINT ( 'NONE',  ( -750.0000000000000000, 0.0000000000000000000, 19.00000000000000400 ) ) ;
#228 = ORIENTED_EDGE ( 'NONE', *, *, #232, .F. ) ;
#229 = DIRECTION ( 'NONE',  ( 0.0000000000000000000, 0.0000000000000000000, 1.000000000000000000 ) ) ;
#230 = PERSON_AND_ORGANIZATION ( #118, #20 ) ;
#231 = FACE_BOUND ( 'NONE', #139, .T. ) ;
#232 = EDGE_CURVE ( 'NONE', #83, #72, #163, .T. ) ;
#233 = ORIENTED_EDGE ( 'NONE', *, *, #138, .T. ) ;
#234 = CYLINDRICAL_SURFACE ( 'NONE', #50, 24.00000000000000400 ) ;
#235 = PRODUCT_DEFINITION_FORMATION_WITH_SPECIFIED_SOURCE ( 'ANY', '', #105, .NOT_KNOWN. ) ;
#236 = CARTESIAN_POINT ( 'NONE',  ( 750.0000000000000000, 0.0000000000000000000, 0.0000000000000000000 ) ) ;
#237 = AXIS2_PLACEMENT_3D ( 'NONE', #148, #21, #53 ) ;
#238 = CIRCLE ( 'NONE', #237, 24.00000000000000400 ) ;
#239 = PERSON_AND_ORGANIZATION_ROLE ( 'creator' ) ;
#240 = CARTESIAN_POINT ( 'NONE',  ( 750.0000000000000000, 2.939152317953648300E-015, -24.00000000000000400 ) ) ;
#241 = LINE ( 'NONE', #1, #112 ) ;
#242 = CARTESIAN_POINT ( 'NONE',  ( 750.0000000000000000, 0.0000000000000000000, 0.0000000000000000000 ) ) ;
#243 = EDGE_CURVE ( 'NONE', #121, #55, #224, .T. ) ;
#244 = ORIENTED_EDGE ( 'NONE', *, *, #23, .F. ) ;
#245 = ORIENTED_EDGE ( 'NONE', *, *, #138, .F. ) ;
#246 = COORDINATED_UNIVERSAL_TIME_OFFSET ( 0, 0, .AHEAD. ) ;
#247 = APPROVAL_ROLE ( '' ) ;
#248 = CARTESIAN_POINT ( 'NONE',  ( 750.0000000000000000, 0.0000000000000000000, 24.00000000000000400 ) ) ;
#249 = EDGE_CURVE ( 'NONE', #30, #106, #209, .T. ) ;
ENDSEC;
END-ISO-10303-21;
