ISO-10303-21;
HEADER;
FILE_DESCRIPTION (( 'STEP AP203' ),
    '1' );
FILE_NAME ('T24004.STEP',
    '2018-07-17T11:24:00',
    ( '' ),
    ( '' ),
    'SwSTEP 2.0',
    'SolidWorks 2016',
    '' );
FILE_SCHEMA (( 'CONFIG_CONTROL_DESIGN' ));
ENDSEC;

DATA;
#1 = ORIENTED_EDGE ( 'NONE', *, *, #105, .F. ) ;
#2 = CARTESIAN_POINT ( 'NONE',  ( -19.89999999999999900, 0.0000000000000000000, -2000.000000000000000 ) ) ;
#3 = CARTESIAN_POINT ( 'NONE',  ( -24.14999999999999900, 0.0000000000000000000, 2000.000000000000000 ) ) ;
#4 = LINE ( 'NONE', #109, #204 ) ;
#5 = CC_DESIGN_APPROVAL ( #194, ( #202 ) ) ;
#6 = CARTESIAN_POINT ( 'NONE',  ( 24.14999999999999900, 2.957522019940857900E-015, 2000.000000000000000 ) ) ;
#7 = CARTESIAN_POINT ( 'NONE',  ( 0.0000000000000000000, 0.0000000000000000000, -2000.000000000000000 ) ) ;
#8 = CARTESIAN_POINT ( 'NONE',  ( 0.0000000000000000000, 0.0000000000000000000, -2000.000000000000000 ) ) ;
#9 = CIRCLE ( 'NONE', #175, 24.14999999999999900 ) ;
#10 = ADVANCED_FACE ( 'NONE', ( #100 ), #58, .F. ) ;
#11 = ORIENTED_EDGE ( 'NONE', *, *, #77, .T. ) ;
#12 = CC_DESIGN_SECURITY_CLASSIFICATION ( #212, ( #202 ) ) ;
#13 = EDGE_LOOP ( 'NONE', ( #48, #120, #187, #117 ) ) ;
#14 =( NAMED_UNIT ( * ) PLANE_ANGLE_UNIT ( ) SI_UNIT ( $, .RADIAN. ) );
#15 = MECHANICAL_CONTEXT ( 'NONE', #145, 'mechanical' ) ;
#16 = CLOSED_SHELL ( 'NONE', ( #10, #215, #47, #217, #46, #170 ) ) ;
#17 = DIRECTION ( 'NONE',  ( 1.000000000000000000, 0.0000000000000000000, 0.0000000000000000000 ) ) ;
#18 = PERSON_AND_ORGANIZATION_ROLE ( 'classification_officer' ) ;
#19 = ORGANIZATION ( 'UNSPECIFIED', 'UNSPECIFIED', '' ) ;
#20 = PERSON ( 'UNSPECIFIED', 'UNSPECIFIED', 'UNSPECIFIED', ('UNSPECIFIED'), ('UNSPECIFIED'), ('UNSPECIFIED') ) ;
#21 = PERSON_AND_ORGANIZATION ( #20, #19 ) ;
#22 = CIRCLE ( 'NONE', #156, 19.89999999999999900 ) ;
#23 = CARTESIAN_POINT ( 'NONE',  ( 0.0000000000000000000, 0.0000000000000000000, -2000.000000000000000 ) ) ;
#24 = PRODUCT_RELATED_PRODUCT_CATEGORY ( 'detail', '', ( #230 ) ) ;
#25 = CARTESIAN_POINT ( 'NONE',  ( 0.0000000000000000000, 0.0000000000000000000, 2000.000000000000000 ) ) ;
#26 = EDGE_CURVE ( 'NONE', #85, #30, #4, .T. ) ;
#27 = CARTESIAN_POINT ( 'NONE',  ( 19.89999999999999900, 2.437047130303232800E-015, 2000.000000000000000 ) ) ;
#28 = CC_DESIGN_PERSON_AND_ORGANIZATION_ASSIGNMENT ( #190, #18, ( #212 ) ) ;
#29 = APPROVAL_PERSON_ORGANIZATION ( #150, #194, #245 ) ;
#30 = VERTEX_POINT ( 'NONE', #2 ) ;
#31 = DESIGN_CONTEXT ( 'detailed design', #71, 'design' ) ;
#32 = ORIENTED_EDGE ( 'NONE', *, *, #77, .F. ) ;
#33 = AXIS2_PLACEMENT_3D ( 'NONE', #95, #227, #246 ) ;
#34 = PERSON_AND_ORGANIZATION ( #20, #19 ) ;
#35 = LINE ( 'NONE', #188, #235 ) ;
#36 = DIRECTION ( 'NONE',  ( -0.0000000000000000000, -0.0000000000000000000, -1.000000000000000000 ) ) ;
#37 = AXIS2_PLACEMENT_3D ( 'NONE', #7, #45, #84 ) ;
#38 = PERSON_AND_ORGANIZATION ( #20, #19 ) ;
#39 = APPROVAL_STATUS ( 'not_yet_approved' ) ;
#40 = ORIENTED_EDGE ( 'NONE', *, *, #123, .F. ) ;
#41 = DIRECTION ( 'NONE',  ( -0.0000000000000000000, -0.0000000000000000000, -1.000000000000000000 ) ) ;
#42 = PERSON_AND_ORGANIZATION ( #20, #19 ) ;
#43 = ORIENTED_EDGE ( 'NONE', *, *, #115, .T. ) ;
#44 = AXIS2_PLACEMENT_3D ( 'NONE', #8, #99, #196 ) ;
#45 = DIRECTION ( 'NONE',  ( 0.0000000000000000000, 0.0000000000000000000, 1.000000000000000000 ) ) ;
#46 = ADVANCED_FACE ( 'NONE', ( #137 ), #63, .T. ) ;
#47 = ADVANCED_FACE ( 'NONE', ( #108, #151 ), #131, .T. ) ;
#48 = ORIENTED_EDGE ( 'NONE', *, *, #69, .F. ) ;
#49 = DIRECTION ( 'NONE',  ( -1.000000000000000000, 0.0000000000000000000, 0.0000000000000000000 ) ) ;
#50 = CC_DESIGN_PERSON_AND_ORGANIZATION_ASSIGNMENT ( #21, #207, ( #202 ) ) ;
#51 = CC_DESIGN_APPROVAL ( #242, ( #174 ) ) ;
#52 = VECTOR ( 'NONE', #78, 1000.000000000000000 ) ;
#53 = EDGE_LOOP ( 'NONE', ( #32, #236, #76, #193 ) ) ;
#54 = AXIS2_PLACEMENT_3D ( 'NONE', #211, #233, #65 ) ;
#55 = MANIFOLD_SOLID_BREP ( 'Extrude-Thin1', #16 ) ;
#56 = CALENDAR_DATE ( 2018, 17, 7 ) ;
#57 = PERSON_AND_ORGANIZATION_ROLE ( 'creator' ) ;
#58 = CYLINDRICAL_SURFACE ( 'NONE', #249, 19.89999999999999900 ) ;
#59 = CARTESIAN_POINT ( 'NONE',  ( -24.14999999999999900, 0.0000000000000000000, 2000.000000000000000 ) ) ;
#60 = APPROVAL_ROLE ( '' ) ;
#61 = PERSON_AND_ORGANIZATION_ROLE ( 'design_supplier' ) ;
#62 = CARTESIAN_POINT ( 'NONE',  ( 0.0000000000000000000, 0.0000000000000000000, 2000.000000000000000 ) ) ;
#63 = CYLINDRICAL_SURFACE ( 'NONE', #142, 24.14999999999999900 ) ;
#64 = CARTESIAN_POINT ( 'NONE',  ( 24.14999999999999900, 2.957522019940857900E-015, -2000.000000000000000 ) ) ;
#65 = DIRECTION ( 'NONE',  ( -1.000000000000000000, 0.0000000000000000000, 0.0000000000000000000 ) ) ;
#66 = CC_DESIGN_PERSON_AND_ORGANIZATION_ASSIGNMENT ( #34, #57, ( #174 ) ) ;
#67 = CC_DESIGN_PERSON_AND_ORGANIZATION_ASSIGNMENT ( #38, #147, ( #230 ) ) ;
#68 = VECTOR ( 'NONE', #203, 1000.000000000000000 ) ;
#69 = EDGE_CURVE ( 'NONE', #201, #244, #35, .T. ) ;
#70 = COORDINATED_UNIVERSAL_TIME_OFFSET ( 0, 0, .AHEAD. ) ;
#71 = APPLICATION_CONTEXT ( 'configuration controlled 3d designs of mechanical parts and assemblies' ) ;
#72 =( GEOMETRIC_REPRESENTATION_CONTEXT ( 3 ) GLOBAL_UNCERTAINTY_ASSIGNED_CONTEXT ( ( #161 ) ) GLOBAL_UNIT_ASSIGNED_CONTEXT ( ( #189, #14, #73 ) ) REPRESENTATION_CONTEXT ( 'NONE', 'WORKASPACE' ) );
#73 =( NAMED_UNIT ( * ) SI_UNIT ( $, .STERADIAN. ) SOLID_ANGLE_UNIT ( ) );
#74 = DATE_TIME_ROLE ( 'classification_date' ) ;
#75 = DIRECTION ( 'NONE',  ( -1.000000000000000000, 0.0000000000000000000, 0.0000000000000000000 ) ) ;
#76 = ORIENTED_EDGE ( 'NONE', *, *, #105, .T. ) ;
#77 = EDGE_CURVE ( 'NONE', #165, #226, #158, .T. ) ;
#78 = DIRECTION ( 'NONE',  ( -0.0000000000000000000, -0.0000000000000000000, -1.000000000000000000 ) ) ;
#79 = CARTESIAN_POINT ( 'NONE',  ( 0.0000000000000000000, 0.0000000000000000000, 2000.000000000000000 ) ) ;
#80 = CALENDAR_DATE ( 2018, 17, 7 ) ;
#81 = CC_DESIGN_PERSON_AND_ORGANIZATION_ASSIGNMENT ( #42, #61, ( #202 ) ) ;
#82 = CIRCLE ( 'NONE', #183, 19.89999999999999900 ) ;
#83 = AXIS2_PLACEMENT_3D ( 'NONE', #62, #163, #149 ) ;
#84 = DIRECTION ( 'NONE',  ( 1.000000000000000000, 0.0000000000000000000, 0.0000000000000000000 ) ) ;
#85 = VERTEX_POINT ( 'NONE', #184 ) ;
#86 = CARTESIAN_POINT ( 'NONE',  ( 0.0000000000000000000, 0.0000000000000000000, -2000.000000000000000 ) ) ;
#87 = CALENDAR_DATE ( 2018, 17, 7 ) ;
#88 = APPROVAL ( #93, 'UNSPECIFIED' ) ;
#89 = LOCAL_TIME ( 12, 24, 0.0000000000000000000, #186 ) ;
#90 = APPROVAL_PERSON_ORGANIZATION ( #209, #242, #60 ) ;
#91 = CC_DESIGN_DATE_AND_TIME_ASSIGNMENT ( #103, #205, ( #174 ) ) ;
#92 = APPROVAL_STATUS ( 'not_yet_approved' ) ;
#93 = APPROVAL_STATUS ( 'not_yet_approved' ) ;
#94 = DIRECTION ( 'NONE',  ( -1.000000000000000000, 0.0000000000000000000, 0.0000000000000000000 ) ) ;
#95 = CARTESIAN_POINT ( 'NONE',  ( 0.0000000000000000000, 0.0000000000000000000, 0.0000000000000000000 ) ) ;
#96 = COORDINATED_UNIVERSAL_TIME_OFFSET ( 0, 0, .AHEAD. ) ;
#97 = LINE ( 'NONE', #59, #52 ) ;
#98 = ORIENTED_EDGE ( 'NONE', *, *, #178, .F. ) ;
#99 = DIRECTION ( 'NONE',  ( 0.0000000000000000000, 0.0000000000000000000, 1.000000000000000000 ) ) ;
#100 = FACE_OUTER_BOUND ( 'NONE', #159, .T. ) ;
#101 = DIRECTION ( 'NONE',  ( 1.000000000000000000, 0.0000000000000000000, 0.0000000000000000000 ) ) ;
#102 = DIRECTION ( 'NONE',  ( 0.0000000000000000000, 0.0000000000000000000, 1.000000000000000000 ) ) ;
#103 = DATE_AND_TIME ( #80, #116 ) ;
#104 = CIRCLE ( 'NONE', #185, 19.89999999999999900 ) ;
#105 = EDGE_CURVE ( 'NONE', #122, #106, #97, .T. ) ;
#106 = VERTEX_POINT ( 'NONE', #171 ) ;
#107 = CIRCLE ( 'NONE', #44, 19.89999999999999900 ) ;
#108 = FACE_OUTER_BOUND ( 'NONE', #177, .T. ) ;
#109 = CARTESIAN_POINT ( 'NONE',  ( -19.89999999999999900, 0.0000000000000000000, 2000.000000000000000 ) ) ;
#110 = CARTESIAN_POINT ( 'NONE',  ( 0.0000000000000000000, 0.0000000000000000000, 2000.000000000000000 ) ) ;
#111 = APPROVAL_ROLE ( '' ) ;
#112 = EDGE_CURVE ( 'NONE', #244, #30, #107, .T. ) ;
#113 = AXIS2_PLACEMENT_3D ( 'NONE', #130, #166, #232 ) ;
#114 = DIRECTION ( 'NONE',  ( 1.000000000000000000, 0.0000000000000000000, 0.0000000000000000000 ) ) ;
#115 = EDGE_CURVE ( 'NONE', #30, #244, #82, .T. ) ;
#116 = LOCAL_TIME ( 12, 24, 0.0000000000000000000, #70 ) ;
#117 = ORIENTED_EDGE ( 'NONE', *, *, #112, .F. ) ;
#118 = DIRECTION ( 'NONE',  ( -0.0000000000000000000, -0.0000000000000000000, -1.000000000000000000 ) ) ;
#119 = DIRECTION ( 'NONE',  ( 1.000000000000000000, 0.0000000000000000000, 0.0000000000000000000 ) ) ;
#120 = ORIENTED_EDGE ( 'NONE', *, *, #231, .T. ) ;
#121 = LOCAL_TIME ( 12, 24, 0.0000000000000000000, #157 ) ;
#122 = VERTEX_POINT ( 'NONE', #3 ) ;
#123 = EDGE_CURVE ( 'NONE', #226, #106, #214, .T. ) ;
#124 = ORIENTED_EDGE ( 'NONE', *, *, #220, .T. ) ;
#125 = CARTESIAN_POINT ( 'NONE',  ( 24.14999999999999900, 2.957522019940857900E-015, 2000.000000000000000 ) ) ;
#126 = EDGE_CURVE ( 'NONE', #165, #122, #197, .T. ) ;
#127 = SECURITY_CLASSIFICATION_LEVEL ( 'unclassified' ) ;
#128 = DATE_AND_TIME ( #200, #121 ) ;
#129 = ORIENTED_EDGE ( 'NONE', *, *, #123, .T. ) ;
#130 = CARTESIAN_POINT ( 'NONE',  ( 0.0000000000000000000, 0.0000000000000000000, -2000.000000000000000 ) ) ;
#131 = PLANE ( 'NONE',  #83 ) ;
#132 = DIRECTION ( 'NONE',  ( 0.0000000000000000000, 0.0000000000000000000, 1.000000000000000000 ) ) ;
#133 = DATE_AND_TIME ( #87, #140 ) ;
#134 = ORIENTED_EDGE ( 'NONE', *, *, #112, .T. ) ;
#135 = APPROVAL_DATE_TIME ( #128, #242 ) ;
#136 = EDGE_LOOP ( 'NONE', ( #43, #134 ) ) ;
#137 = FACE_OUTER_BOUND ( 'NONE', #53, .T. ) ;
#138 = FACE_OUTER_BOUND ( 'NONE', #198, .T. ) ;
#139 = ORIENTED_EDGE ( 'NONE', *, *, #231, .F. ) ;
#140 = LOCAL_TIME ( 12, 24, 0.0000000000000000000, #180 ) ;
#141 = APPLICATION_PROTOCOL_DEFINITION ( 'international standard', 'config_control_design', 1994, #145 ) ;
#142 = AXIS2_PLACEMENT_3D ( 'NONE', #206, #41, #94 ) ;
#143 = DIRECTION ( 'NONE',  ( -0.0000000000000000000, -0.0000000000000000000, -1.000000000000000000 ) ) ;
#144 = FACE_OUTER_BOUND ( 'NONE', #182, .T. ) ;
#145 = APPLICATION_CONTEXT ( 'configuration controlled 3d designs of mechanical parts and assemblies' ) ;
#146 = DIRECTION ( 'NONE',  ( -0.0000000000000000000, -0.0000000000000000000, -1.000000000000000000 ) ) ;
#147 = PERSON_AND_ORGANIZATION_ROLE ( 'design_owner' ) ;
#148 = ADVANCED_BREP_SHAPE_REPRESENTATION ( 'T24004', ( #55, #33 ), #72 ) ;
#149 = DIRECTION ( 'NONE',  ( 1.000000000000000000, 0.0000000000000000000, -0.0000000000000000000 ) ) ;
#150 = PERSON_AND_ORGANIZATION ( #20, #19 ) ;
#151 = FACE_BOUND ( 'NONE', #229, .T. ) ;
#152 = CARTESIAN_POINT ( 'NONE',  ( 19.89999999999999900, 2.437047130303232800E-015, -2000.000000000000000 ) ) ;
#153 = CARTESIAN_POINT ( 'NONE',  ( 0.0000000000000000000, 0.0000000000000000000, 2000.000000000000000 ) ) ;
#154 = DIRECTION ( 'NONE',  ( 0.0000000000000000000, 0.0000000000000000000, 1.000000000000000000 ) ) ;
#155 = CYLINDRICAL_SURFACE ( 'NONE', #237, 24.14999999999999900 ) ;
#156 = AXIS2_PLACEMENT_3D ( 'NONE', #25, #199, #119 ) ;
#157 = COORDINATED_UNIVERSAL_TIME_OFFSET ( 0, 0, .AHEAD. ) ;
#158 = LINE ( 'NONE', #125, #68 ) ;
#159 = EDGE_LOOP ( 'NONE', ( #243, #219, #210, #216 ) ) ;
#160 = FACE_BOUND ( 'NONE', #136, .T. ) ;
#161 = UNCERTAINTY_MEASURE_WITH_UNIT (LENGTH_MEASURE( 1.000000000000000100E-005 ), #189, 'distance_accuracy_value', 'NONE');
#162 = APPLICATION_PROTOCOL_DEFINITION ( 'international standard', 'config_control_design', 1994, #71 ) ;
#163 = DIRECTION ( 'NONE',  ( 0.0000000000000000000, 0.0000000000000000000, 1.000000000000000000 ) ) ;
#164 = DIRECTION ( 'NONE',  ( 1.000000000000000000, 0.0000000000000000000, 0.0000000000000000000 ) ) ;
#165 = VERTEX_POINT ( 'NONE', #6 ) ;
#166 = DIRECTION ( 'NONE',  ( 0.0000000000000000000, 0.0000000000000000000, 1.000000000000000000 ) ) ;
#167 = DIRECTION ( 'NONE',  ( 0.0000000000000000000, 0.0000000000000000000, 1.000000000000000000 ) ) ;
#168 = APPROVAL_DATE_TIME ( #239, #194 ) ;
#169 = CYLINDRICAL_SURFACE ( 'NONE', #54, 19.89999999999999900 ) ;
#170 = ADVANCED_FACE ( 'NONE', ( #172 ), #169, .F. ) ;
#171 = CARTESIAN_POINT ( 'NONE',  ( -24.14999999999999900, 0.0000000000000000000, -2000.000000000000000 ) ) ;
#172 = FACE_OUTER_BOUND ( 'NONE', #13, .T. ) ;
#173 = ORIENTED_EDGE ( 'NONE', *, *, #195, .F. ) ;
#174 = PRODUCT_DEFINITION ( 'UNKNOWN', '', #202, #31 ) ;
#175 = AXIS2_PLACEMENT_3D ( 'NONE', #86, #102, #240 ) ;
#176 = SHAPE_DEFINITION_REPRESENTATION ( #179, #148 ) ;
#177 = EDGE_LOOP ( 'NONE', ( #124, #191 ) ) ;
#178 = EDGE_CURVE ( 'NONE', #85, #201, #22, .T. ) ;
#179 = PRODUCT_DEFINITION_SHAPE ( 'NONE', 'NONE',  #174 ) ;
#180 = COORDINATED_UNIVERSAL_TIME_OFFSET ( 0, 0, .AHEAD. ) ;
#181 = CIRCLE ( 'NONE', #224, 24.14999999999999900 ) ;
#182 = EDGE_LOOP ( 'NONE', ( #173, #40 ) ) ;
#183 = AXIS2_PLACEMENT_3D ( 'NONE', #23, #154, #101 ) ;
#184 = CARTESIAN_POINT ( 'NONE',  ( -19.89999999999999900, 0.0000000000000000000, 2000.000000000000000 ) ) ;
#185 = AXIS2_PLACEMENT_3D ( 'NONE', #192, #248, #17 ) ;
#186 = COORDINATED_UNIVERSAL_TIME_OFFSET ( 0, 0, .AHEAD. ) ;
#187 = ORIENTED_EDGE ( 'NONE', *, *, #26, .T. ) ;
#188 = CARTESIAN_POINT ( 'NONE',  ( 19.89999999999999900, 2.437047130303232800E-015, 2000.000000000000000 ) ) ;
#189 =( LENGTH_UNIT ( ) NAMED_UNIT ( * ) SI_UNIT ( .MILLI., .METRE. ) );
#190 = PERSON_AND_ORGANIZATION ( #20, #19 ) ;
#191 = ORIENTED_EDGE ( 'NONE', *, *, #126, .T. ) ;
#192 = CARTESIAN_POINT ( 'NONE',  ( 0.0000000000000000000, 0.0000000000000000000, 2000.000000000000000 ) ) ;
#193 = ORIENTED_EDGE ( 'NONE', *, *, #195, .T. ) ;
#194 = APPROVAL ( #92, 'UNSPECIFIED' ) ;
#195 = EDGE_CURVE ( 'NONE', #106, #226, #9, .T. ) ;
#196 = DIRECTION ( 'NONE',  ( 1.000000000000000000, 0.0000000000000000000, 0.0000000000000000000 ) ) ;
#197 = CIRCLE ( 'NONE', #213, 24.14999999999999900 ) ;
#198 = EDGE_LOOP ( 'NONE', ( #223, #11, #129, #1 ) ) ;
#199 = DIRECTION ( 'NONE',  ( 0.0000000000000000000, 0.0000000000000000000, 1.000000000000000000 ) ) ;
#200 = CALENDAR_DATE ( 2018, 17, 7 ) ;
#201 = VERTEX_POINT ( 'NONE', #27 ) ;
#202 = PRODUCT_DEFINITION_FORMATION_WITH_SPECIFIED_SOURCE ( 'ANY', '', #230, .NOT_KNOWN. ) ;
#203 = DIRECTION ( 'NONE',  ( -0.0000000000000000000, -0.0000000000000000000, -1.000000000000000000 ) ) ;
#204 = VECTOR ( 'NONE', #36, 1000.000000000000000 ) ;
#205 = DATE_TIME_ROLE ( 'creation_date' ) ;
#206 = CARTESIAN_POINT ( 'NONE',  ( 0.0000000000000000000, 0.0000000000000000000, 2000.000000000000000 ) ) ;
#207 = PERSON_AND_ORGANIZATION_ROLE ( 'creator' ) ;
#208 = PLANE ( 'NONE',  #113 ) ;
#209 = PERSON_AND_ORGANIZATION ( #20, #19 ) ;
#210 = ORIENTED_EDGE ( 'NONE', *, *, #115, .F. ) ;
#211 = CARTESIAN_POINT ( 'NONE',  ( 0.0000000000000000000, 0.0000000000000000000, 2000.000000000000000 ) ) ;
#212 = SECURITY_CLASSIFICATION ( '', '', #127 ) ;
#213 = AXIS2_PLACEMENT_3D ( 'NONE', #153, #132, #114 ) ;
#214 = CIRCLE ( 'NONE', #37, 24.14999999999999900 ) ;
#215 = ADVANCED_FACE ( 'NONE', ( #138 ), #155, .T. ) ;
#216 = ORIENTED_EDGE ( 'NONE', *, *, #26, .F. ) ;
#217 = ADVANCED_FACE ( 'NONE', ( #144, #160 ), #208, .F. ) ;
#218 = DATE_AND_TIME ( #225, #221 ) ;
#219 = ORIENTED_EDGE ( 'NONE', *, *, #69, .T. ) ;
#220 = EDGE_CURVE ( 'NONE', #122, #165, #181, .T. ) ;
#221 = LOCAL_TIME ( 12, 24, 0.0000000000000000000, #96 ) ;
#222 = CC_DESIGN_DATE_AND_TIME_ASSIGNMENT ( #133, #74, ( #212 ) ) ;
#223 = ORIENTED_EDGE ( 'NONE', *, *, #126, .F. ) ;
#224 = AXIS2_PLACEMENT_3D ( 'NONE', #79, #167, #164 ) ;
#225 = CALENDAR_DATE ( 2018, 17, 7 ) ;
#226 = VERTEX_POINT ( 'NONE', #64 ) ;
#227 = DIRECTION ( 'NONE',  ( 0.0000000000000000000, 0.0000000000000000000, 1.000000000000000000 ) ) ;
#228 = PERSON_AND_ORGANIZATION ( #20, #19 ) ;
#229 = EDGE_LOOP ( 'NONE', ( #98, #139 ) ) ;
#230 = PRODUCT ( 'T24004', 'T24004', '', ( #15 ) ) ;
#231 = EDGE_CURVE ( 'NONE', #201, #85, #104, .T. ) ;
#232 = DIRECTION ( 'NONE',  ( 1.000000000000000000, 0.0000000000000000000, -0.0000000000000000000 ) ) ;
#233 = DIRECTION ( 'NONE',  ( -0.0000000000000000000, -0.0000000000000000000, -1.000000000000000000 ) ) ;
#234 = APPROVAL_PERSON_ORGANIZATION ( #228, #88, #111 ) ;
#235 = VECTOR ( 'NONE', #143, 1000.000000000000000 ) ;
#236 = ORIENTED_EDGE ( 'NONE', *, *, #220, .F. ) ;
#237 = AXIS2_PLACEMENT_3D ( 'NONE', #238, #118, #49 ) ;
#238 = CARTESIAN_POINT ( 'NONE',  ( 0.0000000000000000000, 0.0000000000000000000, 2000.000000000000000 ) ) ;
#239 = DATE_AND_TIME ( #56, #89 ) ;
#240 = DIRECTION ( 'NONE',  ( 1.000000000000000000, 0.0000000000000000000, 0.0000000000000000000 ) ) ;
#241 = APPROVAL_DATE_TIME ( #218, #88 ) ;
#242 = APPROVAL ( #39, 'UNSPECIFIED' ) ;
#243 = ORIENTED_EDGE ( 'NONE', *, *, #178, .T. ) ;
#244 = VERTEX_POINT ( 'NONE', #152 ) ;
#245 = APPROVAL_ROLE ( '' ) ;
#246 = DIRECTION ( 'NONE',  ( 1.000000000000000000, 0.0000000000000000000, 0.0000000000000000000 ) ) ;
#247 = CC_DESIGN_APPROVAL ( #88, ( #212 ) ) ;
#248 = DIRECTION ( 'NONE',  ( 0.0000000000000000000, 0.0000000000000000000, 1.000000000000000000 ) ) ;
#249 = AXIS2_PLACEMENT_3D ( 'NONE', #110, #146, #75 ) ;
ENDSEC;
END-ISO-10303-21;
