ISO-10303-21;
HEADER;
FILE_DESCRIPTION (( 'STEP AP203' ),
    '1' );
FILE_NAME ('T2400301.STEP',
    '2018-07-17T11:07:51',
    ( '' ),
    ( '' ),
    'SwSTEP 2.0',
    'SolidWorks 2016',
    '' );
FILE_SCHEMA (( 'CONFIG_CONTROL_DESIGN' ));
ENDSEC;

DATA;
#1 = LOCAL_TIME ( 12, 7, 51.00000000000000000, #217 ) ;
#2 = DIRECTION ( 'NONE',  ( -1.000000000000000000, 0.0000000000000000000, 0.0000000000000000000 ) ) ;
#3 = DIRECTION ( 'NONE',  ( -0.0000000000000000000, -0.0000000000000000000, -1.000000000000000000 ) ) ;
#4 = APPROVAL_DATE_TIME ( #135, #101 ) ;
#5 = VERTEX_POINT ( 'NONE', #45 ) ;
#6 = CARTESIAN_POINT ( 'NONE',  ( 0.0000000000000000000, 0.0000000000000000000, 1500.000000000000000 ) ) ;
#7 = DIRECTION ( 'NONE',  ( -0.0000000000000000000, -0.0000000000000000000, -1.000000000000000000 ) ) ;
#8 = ORIENTED_EDGE ( 'NONE', *, *, #150, .F. ) ;
#9 = VERTEX_POINT ( 'NONE', #220 ) ;
#10 = AXIS2_PLACEMENT_3D ( 'NONE', #212, #24, #41 ) ;
#11 = CALENDAR_DATE ( 2018, 17, 7 ) ;
#12 = EDGE_LOOP ( 'NONE', ( #52, #62 ) ) ;
#13 = DIRECTION ( 'NONE',  ( 1.000000000000000000, 0.0000000000000000000, 0.0000000000000000000 ) ) ;
#14 = CIRCLE ( 'NONE', #166, 19.89999999999999900 ) ;
#15 = CARTESIAN_POINT ( 'NONE',  ( 24.14999999999999900, 2.957522019940857900E-015, 1500.000000000000000 ) ) ;
#16 = CARTESIAN_POINT ( 'NONE',  ( -24.14999999999999900, 0.0000000000000000000, 1500.000000000000000 ) ) ;
#17 = CARTESIAN_POINT ( 'NONE',  ( -19.89999999999999900, 0.0000000000000000000, -1500.000000000000000 ) ) ;
#18 =( LENGTH_UNIT ( ) NAMED_UNIT ( * ) SI_UNIT ( .MILLI., .METRE. ) );
#19 = VECTOR ( 'NONE', #50, 1000.000000000000000 ) ;
#20 = CC_DESIGN_PERSON_AND_ORGANIZATION_ASSIGNMENT ( #195, #240, ( #194 ) ) ;
#21 = CC_DESIGN_PERSON_AND_ORGANIZATION_ASSIGNMENT ( #94, #152, ( #188 ) ) ;
#22 = CALENDAR_DATE ( 2018, 17, 7 ) ;
#23 = VECTOR ( 'NONE', #34, 1000.000000000000000 ) ;
#24 = DIRECTION ( 'NONE',  ( 0.0000000000000000000, 0.0000000000000000000, 1.000000000000000000 ) ) ;
#25 = FACE_OUTER_BOUND ( 'NONE', #12, .T. ) ;
#26 = CALENDAR_DATE ( 2018, 17, 7 ) ;
#27 = APPLICATION_CONTEXT ( 'configuration controlled 3d designs of mechanical parts and assemblies' ) ;
#28 = CIRCLE ( 'NONE', #68, 19.89999999999999900 ) ;
#29 = VECTOR ( 'NONE', #56, 1000.000000000000000 ) ;
#30 = CARTESIAN_POINT ( 'NONE',  ( 19.89999999999999900, 2.437047130303232800E-015, -1500.000000000000000 ) ) ;
#31 = PLANE ( 'NONE',  #72 ) ;
#32 = APPROVAL_DATE_TIME ( #148, #69 ) ;
#33 = DIRECTION ( 'NONE',  ( 0.0000000000000000000, 0.0000000000000000000, 1.000000000000000000 ) ) ;
#34 = DIRECTION ( 'NONE',  ( -0.0000000000000000000, -0.0000000000000000000, -1.000000000000000000 ) ) ;
#35 = CARTESIAN_POINT ( 'NONE',  ( 0.0000000000000000000, 0.0000000000000000000, -1500.000000000000000 ) ) ;
#36 = ORIENTED_EDGE ( 'NONE', *, *, #133, .T. ) ;
#37 = CARTESIAN_POINT ( 'NONE',  ( -19.89999999999999900, 0.0000000000000000000, 1500.000000000000000 ) ) ;
#38 = PERSON_AND_ORGANIZATION ( #146, #153 ) ;
#39 = COORDINATED_UNIVERSAL_TIME_OFFSET ( 0, 0, .AHEAD. ) ;
#40 = DIRECTION ( 'NONE',  ( 1.000000000000000000, 0.0000000000000000000, 0.0000000000000000000 ) ) ;
#41 = DIRECTION ( 'NONE',  ( 1.000000000000000000, 0.0000000000000000000, 0.0000000000000000000 ) ) ;
#42 = CYLINDRICAL_SURFACE ( 'NONE', #80, 24.14999999999999900 ) ;
#43 = DIRECTION ( 'NONE',  ( 1.000000000000000000, 0.0000000000000000000, 0.0000000000000000000 ) ) ;
#44 = EDGE_LOOP ( 'NONE', ( #8, #73, #100, #209 ) ) ;
#45 = CARTESIAN_POINT ( 'NONE',  ( 24.14999999999999900, 2.957522019940857900E-015, 1500.000000000000000 ) ) ;
#46 = LOCAL_TIME ( 12, 7, 51.00000000000000000, #39 ) ;
#47 = COORDINATED_UNIVERSAL_TIME_OFFSET ( 0, 0, .AHEAD. ) ;
#48 = ORIENTED_EDGE ( 'NONE', *, *, #228, .T. ) ;
#49 = DIRECTION ( 'NONE',  ( 0.0000000000000000000, 0.0000000000000000000, 1.000000000000000000 ) ) ;
#50 = DIRECTION ( 'NONE',  ( -0.0000000000000000000, -0.0000000000000000000, -1.000000000000000000 ) ) ;
#51 = CARTESIAN_POINT ( 'NONE',  ( 24.14999999999999900, 2.957522019940857900E-015, -1500.000000000000000 ) ) ;
#52 = ORIENTED_EDGE ( 'NONE', *, *, #187, .T. ) ;
#53 = EDGE_CURVE ( 'NONE', #9, #198, #159, .T. ) ;
#54 = PRODUCT_DEFINITION ( 'UNKNOWN', '', #188, #81 ) ;
#55 = EDGE_CURVE ( 'NONE', #175, #139, #112, .T. ) ;
#56 = DIRECTION ( 'NONE',  ( -0.0000000000000000000, -0.0000000000000000000, -1.000000000000000000 ) ) ;
#57 = CC_DESIGN_DATE_AND_TIME_ASSIGNMENT ( #71, #60, ( #54 ) ) ;
#58 = COORDINATED_UNIVERSAL_TIME_OFFSET ( 0, 0, .AHEAD. ) ;
#59 = ORIENTED_EDGE ( 'NONE', *, *, #55, .T. ) ;
#60 = DATE_TIME_ROLE ( 'creation_date' ) ;
#61 = CARTESIAN_POINT ( 'NONE',  ( 0.0000000000000000000, 0.0000000000000000000, 1500.000000000000000 ) ) ;
#62 = ORIENTED_EDGE ( 'NONE', *, *, #208, .T. ) ;
#63 = ORIENTED_EDGE ( 'NONE', *, *, #179, .F. ) ;
#64 = ADVANCED_FACE ( 'NONE', ( #184 ), #96, .T. ) ;
#65 = LINE ( 'NONE', #172, #29 ) ;
#66 = DIRECTION ( 'NONE',  ( 0.0000000000000000000, 0.0000000000000000000, 1.000000000000000000 ) ) ;
#67 = ORIENTED_EDGE ( 'NONE', *, *, #179, .T. ) ;
#68 = AXIS2_PLACEMENT_3D ( 'NONE', #237, #157, #40 ) ;
#69 = APPROVAL ( #180, 'UNSPECIFIED' ) ;
#70 = ADVANCED_FACE ( 'NONE', ( #25, #205 ), #99, .T. ) ;
#71 = DATE_AND_TIME ( #77, #182 ) ;
#72 = AXIS2_PLACEMENT_3D ( 'NONE', #186, #227, #142 ) ;
#73 = ORIENTED_EDGE ( 'NONE', *, *, #187, .F. ) ;
#74 = DIRECTION ( 'NONE',  ( 1.000000000000000000, 0.0000000000000000000, 0.0000000000000000000 ) ) ;
#75 = VERTEX_POINT ( 'NONE', #30 ) ;
#76 = AXIS2_PLACEMENT_3D ( 'NONE', #35, #189, #74 ) ;
#77 = CALENDAR_DATE ( 2018, 17, 7 ) ;
#78 = ORIENTED_EDGE ( 'NONE', *, *, #181, .F. ) ;
#79 = DIRECTION ( 'NONE',  ( 1.000000000000000000, 0.0000000000000000000, 0.0000000000000000000 ) ) ;
#80 = AXIS2_PLACEMENT_3D ( 'NONE', #232, #104, #125 ) ;
#81 = DESIGN_CONTEXT ( 'detailed design', #27, 'design' ) ;
#82 =( NAMED_UNIT ( * ) PLANE_ANGLE_UNIT ( ) SI_UNIT ( $, .RADIAN. ) );
#83 = CYLINDRICAL_SURFACE ( 'NONE', #234, 19.89999999999999900 ) ;
#84 = EDGE_LOOP ( 'NONE', ( #203, #92, #249, #78 ) ) ;
#85 = AXIS2_PLACEMENT_3D ( 'NONE', #61, #129, #215 ) ;
#86 = LOCAL_TIME ( 12, 7, 51.00000000000000000, #58 ) ;
#87 = FACE_BOUND ( 'NONE', #243, .T. ) ;
#88 =( GEOMETRIC_REPRESENTATION_CONTEXT ( 3 ) GLOBAL_UNCERTAINTY_ASSIGNED_CONTEXT ( ( #105 ) ) GLOBAL_UNIT_ASSIGNED_CONTEXT ( ( #18, #82, #111 ) ) REPRESENTATION_CONTEXT ( 'NONE', 'WORKASPACE' ) );
#89 = APPROVAL_PERSON_ORGANIZATION ( #138, #101, #173 ) ;
#90 = ORIENTED_EDGE ( 'NONE', *, *, #53, .F. ) ;
#91 = PERSON_AND_ORGANIZATION ( #146, #153 ) ;
#92 = ORIENTED_EDGE ( 'NONE', *, *, #150, .T. ) ;
#93 = CARTESIAN_POINT ( 'NONE',  ( 19.89999999999999900, 2.437047130303232800E-015, 1500.000000000000000 ) ) ;
#94 = PERSON_AND_ORGANIZATION ( #146, #153 ) ;
#95 = CLOSED_SHELL ( 'NONE', ( #163, #161, #70, #136, #64, #226 ) ) ;
#96 = CYLINDRICAL_SURFACE ( 'NONE', #158, 24.14999999999999900 ) ;
#97 = EDGE_LOOP ( 'NONE', ( #116, #221 ) ) ;
#98 = DIRECTION ( 'NONE',  ( -0.0000000000000000000, -0.0000000000000000000, -1.000000000000000000 ) ) ;
#99 = PLANE ( 'NONE',  #223 ) ;
#100 = ORIENTED_EDGE ( 'NONE', *, *, #181, .T. ) ;
#101 = APPROVAL ( #156, 'UNSPECIFIED' ) ;
#102 = VECTOR ( 'NONE', #7, 1000.000000000000000 ) ;
#103 = FACE_OUTER_BOUND ( 'NONE', #171, .T. ) ;
#104 = DIRECTION ( 'NONE',  ( -0.0000000000000000000, -0.0000000000000000000, -1.000000000000000000 ) ) ;
#105 = UNCERTAINTY_MEASURE_WITH_UNIT (LENGTH_MEASURE( 1.000000000000000100E-005 ), #18, 'distance_accuracy_value', 'NONE');
#106 = APPROVAL_DATE_TIME ( #235, #229 ) ;
#107 = FACE_OUTER_BOUND ( 'NONE', #164, .T. ) ;
#108 = ORIENTED_EDGE ( 'NONE', *, *, #140, .F. ) ;
#109 = CC_DESIGN_APPROVAL ( #101, ( #224 ) ) ;
#110 = CC_DESIGN_PERSON_AND_ORGANIZATION_ASSIGNMENT ( #38, #127, ( #224 ) ) ;
#111 =( NAMED_UNIT ( * ) SI_UNIT ( $, .STERADIAN. ) SOLID_ANGLE_UNIT ( ) );
#112 = CIRCLE ( 'NONE', #213, 19.89999999999999900 ) ;
#113 = MECHANICAL_CONTEXT ( 'NONE', #160, 'mechanical' ) ;
#114 = PRODUCT_DEFINITION_SHAPE ( 'NONE', 'NONE',  #54 ) ;
#115 = CARTESIAN_POINT ( 'NONE',  ( 0.0000000000000000000, 0.0000000000000000000, 1500.000000000000000 ) ) ;
#116 = ORIENTED_EDGE ( 'NONE', *, *, #145, .F. ) ;
#117 = CARTESIAN_POINT ( 'NONE',  ( 0.0000000000000000000, 0.0000000000000000000, 1500.000000000000000 ) ) ;
#118 = CC_DESIGN_PERSON_AND_ORGANIZATION_ASSIGNMENT ( #242, #193, ( #188 ) ) ;
#119 = DIRECTION ( 'NONE',  ( 1.000000000000000000, 0.0000000000000000000, -0.0000000000000000000 ) ) ;
#120 = APPROVAL_PERSON_ORGANIZATION ( #137, #229, #132 ) ;
#121 = PRODUCT_RELATED_PRODUCT_CATEGORY ( 'detail', '', ( #194 ) ) ;
#122 = VERTEX_POINT ( 'NONE', #16 ) ;
#123 = CC_DESIGN_APPROVAL ( #229, ( #188 ) ) ;
#124 = LOCAL_TIME ( 12, 7, 51.00000000000000000, #130 ) ;
#125 = DIRECTION ( 'NONE',  ( -1.000000000000000000, 0.0000000000000000000, 0.0000000000000000000 ) ) ;
#126 = CIRCLE ( 'NONE', #76, 19.89999999999999900 ) ;
#127 = PERSON_AND_ORGANIZATION_ROLE ( 'classification_officer' ) ;
#128 = CC_DESIGN_APPROVAL ( #69, ( #54 ) ) ;
#129 = DIRECTION ( 'NONE',  ( 0.0000000000000000000, 0.0000000000000000000, 1.000000000000000000 ) ) ;
#130 = COORDINATED_UNIVERSAL_TIME_OFFSET ( 0, 0, .AHEAD. ) ;
#131 = ORIENTED_EDGE ( 'NONE', *, *, #228, .F. ) ;
#132 = APPROVAL_ROLE ( '' ) ;
#133 = EDGE_CURVE ( 'NONE', #75, #149, #126, .T. ) ;
#134 = AXIS2_PLACEMENT_3D ( 'NONE', #6, #3, #199 ) ;
#135 = DATE_AND_TIME ( #246, #124 ) ;
#136 = ADVANCED_FACE ( 'NONE', ( #107, #87 ), #31, .F. ) ;
#137 = PERSON_AND_ORGANIZATION ( #146, #153 ) ;
#138 = PERSON_AND_ORGANIZATION ( #146, #153 ) ;
#139 = VERTEX_POINT ( 'NONE', #202 ) ;
#140 = EDGE_CURVE ( 'NONE', #198, #9, #167, .T. ) ;
#141 = CARTESIAN_POINT ( 'NONE',  ( 0.0000000000000000000, 0.0000000000000000000, 1500.000000000000000 ) ) ;
#142 = DIRECTION ( 'NONE',  ( 1.000000000000000000, 0.0000000000000000000, -0.0000000000000000000 ) ) ;
#143 = SHAPE_DEFINITION_REPRESENTATION ( #114, #219 ) ;
#144 = CARTESIAN_POINT ( 'NONE',  ( 0.0000000000000000000, 0.0000000000000000000, 1500.000000000000000 ) ) ;
#145 = EDGE_CURVE ( 'NONE', #139, #175, #14, .T. ) ;
#146 = PERSON ( 'UNSPECIFIED', 'UNSPECIFIED', 'UNSPECIFIED', ('UNSPECIFIED'), ('UNSPECIFIED'), ('UNSPECIFIED') ) ;
#147 = DIRECTION ( 'NONE',  ( -0.0000000000000000000, -0.0000000000000000000, -1.000000000000000000 ) ) ;
#148 = DATE_AND_TIME ( #26, #86 ) ;
#149 = VERTEX_POINT ( 'NONE', #17 ) ;
#150 = EDGE_CURVE ( 'NONE', #5, #198, #183, .T. ) ;
#151 = CARTESIAN_POINT ( 'NONE',  ( 19.89999999999999900, 2.437047130303232800E-015, 1500.000000000000000 ) ) ;
#152 = PERSON_AND_ORGANIZATION_ROLE ( 'design_supplier' ) ;
#153 = ORGANIZATION ( 'UNSPECIFIED', 'UNSPECIFIED', '' ) ;
#154 = EDGE_LOOP ( 'NONE', ( #196, #48, #178, #63 ) ) ;
#155 = ORIENTED_EDGE ( 'NONE', *, *, #211, .T. ) ;
#156 = APPROVAL_STATUS ( 'not_yet_approved' ) ;
#157 = DIRECTION ( 'NONE',  ( 0.0000000000000000000, 0.0000000000000000000, 1.000000000000000000 ) ) ;
#158 = AXIS2_PLACEMENT_3D ( 'NONE', #115, #98, #185 ) ;
#159 = CIRCLE ( 'NONE', #201, 24.14999999999999900 ) ;
#160 = APPLICATION_CONTEXT ( 'configuration controlled 3d designs of mechanical parts and assemblies' ) ;
#161 = ADVANCED_FACE ( 'NONE', ( #207 ), #42, .T. ) ;
#162 = CC_DESIGN_PERSON_AND_ORGANIZATION_ASSIGNMENT ( #91, #239, ( #54 ) ) ;
#163 = ADVANCED_FACE ( 'NONE', ( #236 ), #83, .F. ) ;
#164 = EDGE_LOOP ( 'NONE', ( #90, #108 ) ) ;
#165 = CARTESIAN_POINT ( 'NONE',  ( 0.0000000000000000000, 0.0000000000000000000, 1500.000000000000000 ) ) ;
#166 = AXIS2_PLACEMENT_3D ( 'NONE', #141, #33, #168 ) ;
#167 = CIRCLE ( 'NONE', #206, 24.14999999999999900 ) ;
#168 = DIRECTION ( 'NONE',  ( 1.000000000000000000, 0.0000000000000000000, 0.0000000000000000000 ) ) ;
#169 = LINE ( 'NONE', #37, #19 ) ;
#170 = CARTESIAN_POINT ( 'NONE',  ( 0.0000000000000000000, 0.0000000000000000000, -1500.000000000000000 ) ) ;
#171 = EDGE_LOOP ( 'NONE', ( #131, #59, #67, #214 ) ) ;
#172 = CARTESIAN_POINT ( 'NONE',  ( -24.14999999999999900, 0.0000000000000000000, 1500.000000000000000 ) ) ;
#173 = APPROVAL_ROLE ( '' ) ;
#174 = CC_DESIGN_DATE_AND_TIME_ASSIGNMENT ( #190, #233, ( #224 ) ) ;
#175 = VERTEX_POINT ( 'NONE', #151 ) ;
#176 = APPROVAL_STATUS ( 'not_yet_approved' ) ;
#177 = APPROVAL_PERSON_ORGANIZATION ( #231, #69, #216 ) ;
#178 = ORIENTED_EDGE ( 'NONE', *, *, #211, .F. ) ;
#179 = EDGE_CURVE ( 'NONE', #139, #149, #169, .T. ) ;
#180 = APPROVAL_STATUS ( 'not_yet_approved' ) ;
#181 = EDGE_CURVE ( 'NONE', #122, #9, #65, .T. ) ;
#182 = LOCAL_TIME ( 12, 7, 51.00000000000000000, #47 ) ;
#183 = LINE ( 'NONE', #15, #23 ) ;
#184 = FACE_OUTER_BOUND ( 'NONE', #44, .T. ) ;
#185 = DIRECTION ( 'NONE',  ( -1.000000000000000000, 0.0000000000000000000, 0.0000000000000000000 ) ) ;
#186 = CARTESIAN_POINT ( 'NONE',  ( 0.0000000000000000000, 0.0000000000000000000, -1500.000000000000000 ) ) ;
#187 = EDGE_CURVE ( 'NONE', #122, #5, #248, .T. ) ;
#188 = PRODUCT_DEFINITION_FORMATION_WITH_SPECIFIED_SOURCE ( 'ANY', '', #194, .NOT_KNOWN. ) ;
#189 = DIRECTION ( 'NONE',  ( 0.0000000000000000000, 0.0000000000000000000, 1.000000000000000000 ) ) ;
#190 = DATE_AND_TIME ( #11, #1 ) ;
#191 = CYLINDRICAL_SURFACE ( 'NONE', #134, 19.89999999999999900 ) ;
#192 = DIRECTION ( 'NONE',  ( 0.0000000000000000000, 0.0000000000000000000, 1.000000000000000000 ) ) ;
#193 = PERSON_AND_ORGANIZATION_ROLE ( 'creator' ) ;
#194 = PRODUCT ( 'T2400301', 'T2400301', '', ( #113 ) ) ;
#195 = PERSON_AND_ORGANIZATION ( #146, #153 ) ;
#196 = ORIENTED_EDGE ( 'NONE', *, *, #145, .T. ) ;
#197 = SECURITY_CLASSIFICATION_LEVEL ( 'unclassified' ) ;
#198 = VERTEX_POINT ( 'NONE', #51 ) ;
#199 = DIRECTION ( 'NONE',  ( -1.000000000000000000, 0.0000000000000000000, 0.0000000000000000000 ) ) ;
#200 = APPLICATION_PROTOCOL_DEFINITION ( 'international standard', 'config_control_design', 1994, #160 ) ;
#201 = AXIS2_PLACEMENT_3D ( 'NONE', #222, #244, #43 ) ;
#202 = CARTESIAN_POINT ( 'NONE',  ( -19.89999999999999900, 0.0000000000000000000, 1500.000000000000000 ) ) ;
#203 = ORIENTED_EDGE ( 'NONE', *, *, #208, .F. ) ;
#204 = AXIS2_PLACEMENT_3D ( 'NONE', #144, #192, #79 ) ;
#205 = FACE_BOUND ( 'NONE', #97, .T. ) ;
#206 = AXIS2_PLACEMENT_3D ( 'NONE', #170, #49, #247 ) ;
#207 = FACE_OUTER_BOUND ( 'NONE', #84, .T. ) ;
#208 = EDGE_CURVE ( 'NONE', #5, #122, #230, .T. ) ;
#209 = ORIENTED_EDGE ( 'NONE', *, *, #53, .T. ) ;
#210 = CARTESIAN_POINT ( 'NONE',  ( 0.0000000000000000000, 0.0000000000000000000, 1500.000000000000000 ) ) ;
#211 = EDGE_CURVE ( 'NONE', #149, #75, #28, .T. ) ;
#212 = CARTESIAN_POINT ( 'NONE',  ( 0.0000000000000000000, 0.0000000000000000000, 0.0000000000000000000 ) ) ;
#213 = AXIS2_PLACEMENT_3D ( 'NONE', #117, #66, #13 ) ;
#214 = ORIENTED_EDGE ( 'NONE', *, *, #133, .F. ) ;
#215 = DIRECTION ( 'NONE',  ( 1.000000000000000000, 0.0000000000000000000, 0.0000000000000000000 ) ) ;
#216 = APPROVAL_ROLE ( '' ) ;
#217 = COORDINATED_UNIVERSAL_TIME_OFFSET ( 0, 0, .AHEAD. ) ;
#218 = LINE ( 'NONE', #93, #102 ) ;
#219 = ADVANCED_BREP_SHAPE_REPRESENTATION ( 'T2400301', ( #241, #10 ), #88 ) ;
#220 = CARTESIAN_POINT ( 'NONE',  ( -24.14999999999999900, 0.0000000000000000000, -1500.000000000000000 ) ) ;
#221 = ORIENTED_EDGE ( 'NONE', *, *, #55, .F. ) ;
#222 = CARTESIAN_POINT ( 'NONE',  ( 0.0000000000000000000, 0.0000000000000000000, -1500.000000000000000 ) ) ;
#223 = AXIS2_PLACEMENT_3D ( 'NONE', #165, #245, #119 ) ;
#224 = SECURITY_CLASSIFICATION ( '', '', #197 ) ;
#225 = CC_DESIGN_SECURITY_CLASSIFICATION ( #224, ( #188 ) ) ;
#226 = ADVANCED_FACE ( 'NONE', ( #103 ), #191, .F. ) ;
#227 = DIRECTION ( 'NONE',  ( 0.0000000000000000000, 0.0000000000000000000, 1.000000000000000000 ) ) ;
#228 = EDGE_CURVE ( 'NONE', #175, #75, #218, .T. ) ;
#229 = APPROVAL ( #176, 'UNSPECIFIED' ) ;
#230 = CIRCLE ( 'NONE', #85, 24.14999999999999900 ) ;
#231 = PERSON_AND_ORGANIZATION ( #146, #153 ) ;
#232 = CARTESIAN_POINT ( 'NONE',  ( 0.0000000000000000000, 0.0000000000000000000, 1500.000000000000000 ) ) ;
#233 = DATE_TIME_ROLE ( 'classification_date' ) ;
#234 = AXIS2_PLACEMENT_3D ( 'NONE', #210, #147, #2 ) ;
#235 = DATE_AND_TIME ( #22, #46 ) ;
#236 = FACE_OUTER_BOUND ( 'NONE', #154, .T. ) ;
#237 = CARTESIAN_POINT ( 'NONE',  ( 0.0000000000000000000, 0.0000000000000000000, -1500.000000000000000 ) ) ;
#238 = APPLICATION_PROTOCOL_DEFINITION ( 'international standard', 'config_control_design', 1994, #27 ) ;
#239 = PERSON_AND_ORGANIZATION_ROLE ( 'creator' ) ;
#240 = PERSON_AND_ORGANIZATION_ROLE ( 'design_owner' ) ;
#241 = MANIFOLD_SOLID_BREP ( 'Extrude-Thin1', #95 ) ;
#242 = PERSON_AND_ORGANIZATION ( #146, #153 ) ;
#243 = EDGE_LOOP ( 'NONE', ( #155, #36 ) ) ;
#244 = DIRECTION ( 'NONE',  ( 0.0000000000000000000, 0.0000000000000000000, 1.000000000000000000 ) ) ;
#245 = DIRECTION ( 'NONE',  ( 0.0000000000000000000, 0.0000000000000000000, 1.000000000000000000 ) ) ;
#246 = CALENDAR_DATE ( 2018, 17, 7 ) ;
#247 = DIRECTION ( 'NONE',  ( 1.000000000000000000, 0.0000000000000000000, 0.0000000000000000000 ) ) ;
#248 = CIRCLE ( 'NONE', #204, 24.14999999999999900 ) ;
#249 = ORIENTED_EDGE ( 'NONE', *, *, #140, .T. ) ;
ENDSEC;
END-ISO-10303-21;
