ISO-10303-21;
HEADER;
FILE_DESCRIPTION (( 'STEP AP203' ),
    '1' );
FILE_NAME ('T2400201.STEP',
    '2018-07-17T10:43:48',
    ( '' ),
    ( '' ),
    'SwSTEP 2.0',
    'SolidWorks 2016',
    '' );
FILE_SCHEMA (( 'CONFIG_CONTROL_DESIGN' ));
ENDSEC;

DATA;
#1 = CARTESIAN_POINT ( 'NONE',  ( 1000.000000000000000, 0.0000000000000000000, 0.0000000000000000000 ) ) ;
#2 = AXIS2_PLACEMENT_3D ( 'NONE', #6, #5, #176 ) ;
#3 = DIRECTION ( 'NONE',  ( -1.000000000000000000, -0.0000000000000000000, -0.0000000000000000000 ) ) ;
#4 = COORDINATED_UNIVERSAL_TIME_OFFSET ( 0, 0, .AHEAD. ) ;
#5 = DIRECTION ( 'NONE',  ( 1.000000000000000000, 0.0000000000000000000, 0.0000000000000000000 ) ) ;
#6 = CARTESIAN_POINT ( 'NONE',  ( 1000.000000000000000, 0.0000000000000000000, 0.0000000000000000000 ) ) ;
#7 = PERSON_AND_ORGANIZATION ( #71, #155 ) ;
#8 = FACE_OUTER_BOUND ( 'NONE', #22, .T. ) ;
#9 = APPROVAL_ROLE ( '' ) ;
#10 = CC_DESIGN_SECURITY_CLASSIFICATION ( #201, ( #67 ) ) ;
#11 = LINE ( 'NONE', #156, #35 ) ;
#12 = ADVANCED_BREP_SHAPE_REPRESENTATION ( 'T2400201', ( #152, #117 ), #97 ) ;
#13 = DATE_AND_TIME ( #103, #50 ) ;
#14 = ORIENTED_EDGE ( 'NONE', *, *, #165, .F. ) ;
#15 = AXIS2_PLACEMENT_3D ( 'NONE', #188, #245, #100 ) ;
#16 = CARTESIAN_POINT ( 'NONE',  ( -1000.000000000000000, 2.326828918379971400E-015, -19.00000000000000400 ) ) ;
#17 = FACE_OUTER_BOUND ( 'NONE', #182, .T. ) ;
#18 = ORIENTED_EDGE ( 'NONE', *, *, #34, .T. ) ;
#19 = EDGE_CURVE ( 'NONE', #52, #55, #148, .T. ) ;
#20 = DIRECTION ( 'NONE',  ( 0.0000000000000000000, 0.0000000000000000000, -1.000000000000000000 ) ) ;
#21 = APPROVAL_DATE_TIME ( #211, #213 ) ;
#22 = EDGE_LOOP ( 'NONE', ( #132, #175 ) ) ;
#23 = CARTESIAN_POINT ( 'NONE',  ( 1000.000000000000000, 2.326828918379971400E-015, -19.00000000000000400 ) ) ;
#24 = CARTESIAN_POINT ( 'NONE',  ( -1000.000000000000000, 0.0000000000000000000, 24.00000000000000400 ) ) ;
#25 = DIRECTION ( 'NONE',  ( 0.0000000000000000000, 0.0000000000000000000, 1.000000000000000000 ) ) ;
#26 = AXIS2_PLACEMENT_3D ( 'NONE', #179, #82, #108 ) ;
#27 = CARTESIAN_POINT ( 'NONE',  ( 1000.000000000000000, 0.0000000000000000000, 0.0000000000000000000 ) ) ;
#28 = ORIENTED_EDGE ( 'NONE', *, *, #124, .F. ) ;
#29 = SECURITY_CLASSIFICATION_LEVEL ( 'unclassified' ) ;
#30 = ORIENTED_EDGE ( 'NONE', *, *, #203, .F. ) ;
#31 = AXIS2_PLACEMENT_3D ( 'NONE', #65, #143, #197 ) ;
#32 = LOCAL_TIME ( 11, 43, 48.00000000000000000, #247 ) ;
#33 = ORIENTED_EDGE ( 'NONE', *, *, #170, .T. ) ;
#34 = EDGE_CURVE ( 'NONE', #48, #66, #215, .T. ) ;
#35 = VECTOR ( 'NONE', #160, 1000.000000000000000 ) ;
#36 = AXIS2_PLACEMENT_3D ( 'NONE', #121, #79, #20 ) ;
#37 = CALENDAR_DATE ( 2018, 17, 7 ) ;
#38 = CARTESIAN_POINT ( 'NONE',  ( 1000.000000000000000, 0.0000000000000000000, 24.00000000000000400 ) ) ;
#39 = COORDINATED_UNIVERSAL_TIME_OFFSET ( 0, 0, .AHEAD. ) ;
#40 = ORIENTED_EDGE ( 'NONE', *, *, #118, .F. ) ;
#41 = CARTESIAN_POINT ( 'NONE',  ( 1000.000000000000000, 2.326828918379971400E-015, -19.00000000000000400 ) ) ;
#42 = LINE ( 'NONE', #123, #204 ) ;
#43 = DIRECTION ( 'NONE',  ( -1.000000000000000000, -0.0000000000000000000, -0.0000000000000000000 ) ) ;
#44 = CC_DESIGN_PERSON_AND_ORGANIZATION_ASSIGNMENT ( #199, #236, ( #67 ) ) ;
#45 = DIRECTION ( 'NONE',  ( 1.000000000000000000, 0.0000000000000000000, 0.0000000000000000000 ) ) ;
#46 = PRODUCT_DEFINITION_SHAPE ( 'NONE', 'NONE',  #149 ) ;
#47 = CYLINDRICAL_SURFACE ( 'NONE', #186, 19.00000000000000400 ) ;
#48 = VERTEX_POINT ( 'NONE', #16 ) ;
#49 = APPROVAL_STATUS ( 'not_yet_approved' ) ;
#50 = LOCAL_TIME ( 11, 43, 48.00000000000000000, #51 ) ;
#51 = COORDINATED_UNIVERSAL_TIME_OFFSET ( 0, 0, .AHEAD. ) ;
#52 = VERTEX_POINT ( 'NONE', #157 ) ;
#53 = LOCAL_TIME ( 11, 43, 48.00000000000000000, #39 ) ;
#54 = FACE_OUTER_BOUND ( 'NONE', #69, .T. ) ;
#55 = VERTEX_POINT ( 'NONE', #120 ) ;
#56 = ADVANCED_FACE ( 'NONE', ( #178 ), #185, .F. ) ;
#57 = EDGE_CURVE ( 'NONE', #52, #235, #217, .T. ) ;
#58 = CARTESIAN_POINT ( 'NONE',  ( 1000.000000000000000, 0.0000000000000000000, 0.0000000000000000000 ) ) ;
#59 = ORIENTED_EDGE ( 'NONE', *, *, #118, .T. ) ;
#60 = APPLICATION_CONTEXT ( 'configuration controlled 3d designs of mechanical parts and assemblies' ) ;
#61 = PLANE ( 'NONE',  #62 ) ;
#62 = AXIS2_PLACEMENT_3D ( 'NONE', #214, #45, #216 ) ;
#63 = DIRECTION ( 'NONE',  ( 0.0000000000000000000, 0.0000000000000000000, 1.000000000000000000 ) ) ;
#64 = APPROVAL_DATE_TIME ( #158, #89 ) ;
#65 = CARTESIAN_POINT ( 'NONE',  ( -1000.000000000000000, 0.0000000000000000000, 0.0000000000000000000 ) ) ;
#66 = VERTEX_POINT ( 'NONE', #102 ) ;
#67 = PRODUCT_DEFINITION_FORMATION_WITH_SPECIFIED_SOURCE ( 'ANY', '', #166, .NOT_KNOWN. ) ;
#68 = DATE_TIME_ROLE ( 'classification_date' ) ;
#69 = EDGE_LOOP ( 'NONE', ( #30, #192, #229, #169 ) ) ;
#70 = CC_DESIGN_PERSON_AND_ORGANIZATION_ASSIGNMENT ( #184, #94, ( #166 ) ) ;
#71 = PERSON ( 'UNSPECIFIED', 'UNSPECIFIED', 'UNSPECIFIED', ('UNSPECIFIED'), ('UNSPECIFIED'), ('UNSPECIFIED') ) ;
#72 = PERSON_AND_ORGANIZATION ( #71, #155 ) ;
#73 = ORIENTED_EDGE ( 'NONE', *, *, #140, .F. ) ;
#74 = ADVANCED_FACE ( 'NONE', ( #8, #92 ), #135, .T. ) ;
#75 = AXIS2_PLACEMENT_3D ( 'NONE', #88, #230, #107 ) ;
#76 = DATE_AND_TIME ( #220, #85 ) ;
#77 = EDGE_LOOP ( 'NONE', ( #73, #242, #200, #96 ) ) ;
#78 = DIRECTION ( 'NONE',  ( 0.0000000000000000000, 0.0000000000000000000, -1.000000000000000000 ) ) ;
#79 = DIRECTION ( 'NONE',  ( 1.000000000000000000, 0.0000000000000000000, 0.0000000000000000000 ) ) ;
#80 = CARTESIAN_POINT ( 'NONE',  ( 1000.000000000000000, 0.0000000000000000000, 19.00000000000000400 ) ) ;
#81 = EDGE_LOOP ( 'NONE', ( #28, #133, #119, #167 ) ) ;
#82 = DIRECTION ( 'NONE',  ( 1.000000000000000000, 0.0000000000000000000, 0.0000000000000000000 ) ) ;
#83 = DIRECTION ( 'NONE',  ( 0.0000000000000000000, 0.0000000000000000000, 1.000000000000000000 ) ) ;
#84 = DIRECTION ( 'NONE',  ( -1.000000000000000000, -0.0000000000000000000, -0.0000000000000000000 ) ) ;
#85 = LOCAL_TIME ( 11, 43, 48.00000000000000000, #4 ) ;
#86 = CC_DESIGN_PERSON_AND_ORGANIZATION_ASSIGNMENT ( #72, #202, ( #201 ) ) ;
#87 = ORIENTED_EDGE ( 'NONE', *, *, #170, .F. ) ;
#88 = CARTESIAN_POINT ( 'NONE',  ( -1000.000000000000000, 0.0000000000000000000, 0.0000000000000000000 ) ) ;
#89 = APPROVAL ( #239, 'UNSPECIFIED' ) ;
#90 = APPLICATION_PROTOCOL_DEFINITION ( 'international standard', 'config_control_design', 1994, #112 ) ;
#91 = CIRCLE ( 'NONE', #26, 19.00000000000000400 ) ;
#92 = FACE_BOUND ( 'NONE', #221, .T. ) ;
#93 = APPROVAL_ROLE ( '' ) ;
#94 = PERSON_AND_ORGANIZATION_ROLE ( 'design_owner' ) ;
#95 = AXIS2_PLACEMENT_3D ( 'NONE', #233, #142, #106 ) ;
#96 = ORIENTED_EDGE ( 'NONE', *, *, #34, .F. ) ;
#97 =( GEOMETRIC_REPRESENTATION_CONTEXT ( 3 ) GLOBAL_UNCERTAINTY_ASSIGNED_CONTEXT ( ( #136 ) ) GLOBAL_UNIT_ASSIGNED_CONTEXT ( ( #232, #162, #177 ) ) REPRESENTATION_CONTEXT ( 'NONE', 'WORKASPACE' ) );
#98 = AXIS2_PLACEMENT_3D ( 'NONE', #58, #193, #145 ) ;
#99 = APPROVAL_DATE_TIME ( #234, #224 ) ;
#100 = DIRECTION ( 'NONE',  ( 0.0000000000000000000, 0.0000000000000000000, 1.000000000000000000 ) ) ;
#101 = CC_DESIGN_APPROVAL ( #224, ( #67 ) ) ;
#102 = CARTESIAN_POINT ( 'NONE',  ( -1000.000000000000000, 0.0000000000000000000, 19.00000000000000400 ) ) ;
#103 = CALENDAR_DATE ( 2018, 17, 7 ) ;
#104 = ORIENTED_EDGE ( 'NONE', *, *, #129, .F. ) ;
#105 = DIRECTION ( 'NONE',  ( -1.000000000000000000, -0.0000000000000000000, -0.0000000000000000000 ) ) ;
#106 = DIRECTION ( 'NONE',  ( 0.0000000000000000000, 0.0000000000000000000, -1.000000000000000000 ) ) ;
#107 = DIRECTION ( 'NONE',  ( 0.0000000000000000000, 0.0000000000000000000, -1.000000000000000000 ) ) ;
#108 = DIRECTION ( 'NONE',  ( 0.0000000000000000000, 0.0000000000000000000, -1.000000000000000000 ) ) ;
#109 = DESIGN_CONTEXT ( 'detailed design', #112, 'design' ) ;
#110 = CYLINDRICAL_SURFACE ( 'NONE', #98, 24.00000000000000400 ) ;
#111 = CIRCLE ( 'NONE', #219, 19.00000000000000400 ) ;
#112 = APPLICATION_CONTEXT ( 'configuration controlled 3d designs of mechanical parts and assemblies' ) ;
#113 = DATE_TIME_ROLE ( 'creation_date' ) ;
#114 = CIRCLE ( 'NONE', #31, 24.00000000000000400 ) ;
#115 = FACE_OUTER_BOUND ( 'NONE', #81, .T. ) ;
#116 = VERTEX_POINT ( 'NONE', #249 ) ;
#117 = AXIS2_PLACEMENT_3D ( 'NONE', #194, #83, #198 ) ;
#118 = EDGE_CURVE ( 'NONE', #127, #248, #111, .T. ) ;
#119 = ORIENTED_EDGE ( 'NONE', *, *, #154, .T. ) ;
#120 = CARTESIAN_POINT ( 'NONE',  ( 1000.000000000000000, 2.939152317953648300E-015, -24.00000000000000400 ) ) ;
#121 = CARTESIAN_POINT ( 'NONE',  ( 1000.000000000000000, 0.0000000000000000000, 0.0000000000000000000 ) ) ;
#122 = DIRECTION ( 'NONE',  ( -1.000000000000000000, -0.0000000000000000000, -0.0000000000000000000 ) ) ;
#123 = CARTESIAN_POINT ( 'NONE',  ( 1000.000000000000000, 2.939152317953648300E-015, -24.00000000000000400 ) ) ;
#124 = EDGE_CURVE ( 'NONE', #55, #52, #138, .T. ) ;
#125 = APPROVAL_PERSON_ORGANIZATION ( #171, #213, #150 ) ;
#126 = DIRECTION ( 'NONE',  ( 0.0000000000000000000, 0.0000000000000000000, -1.000000000000000000 ) ) ;
#127 = VERTEX_POINT ( 'NONE', #80 ) ;
#128 = PERSON_AND_ORGANIZATION_ROLE ( 'creator' ) ;
#129 = EDGE_CURVE ( 'NONE', #127, #66, #11, .T. ) ;
#130 = PERSON_AND_ORGANIZATION ( #71, #155 ) ;
#131 = ORIENTED_EDGE ( 'NONE', *, *, #140, .T. ) ;
#132 = ORIENTED_EDGE ( 'NONE', *, *, #19, .T. ) ;
#133 = ORIENTED_EDGE ( 'NONE', *, *, #203, .T. ) ;
#134 = ADVANCED_FACE ( 'NONE', ( #115 ), #110, .T. ) ;
#135 = PLANE ( 'NONE',  #240 ) ;
#136 = UNCERTAINTY_MEASURE_WITH_UNIT (LENGTH_MEASURE( 1.000000000000000100E-005 ), #232, 'distance_accuracy_value', 'NONE');
#137 = APPROVAL_PERSON_ORGANIZATION ( #161, #89, #9 ) ;
#138 = CIRCLE ( 'NONE', #2, 24.00000000000000400 ) ;
#139 = DIRECTION ( 'NONE',  ( 1.000000000000000000, 0.0000000000000000000, 0.0000000000000000000 ) ) ;
#140 = EDGE_CURVE ( 'NONE', #248, #48, #146, .T. ) ;
#141 = APPLICATION_PROTOCOL_DEFINITION ( 'international standard', 'config_control_design', 1994, #60 ) ;
#142 = DIRECTION ( 'NONE',  ( 1.000000000000000000, 0.0000000000000000000, 0.0000000000000000000 ) ) ;
#143 = DIRECTION ( 'NONE',  ( 1.000000000000000000, 0.0000000000000000000, 0.0000000000000000000 ) ) ;
#144 = AXIS2_PLACEMENT_3D ( 'NONE', #1, #84, #25 ) ;
#145 = DIRECTION ( 'NONE',  ( 0.0000000000000000000, 0.0000000000000000000, 1.000000000000000000 ) ) ;
#146 = LINE ( 'NONE', #23, #163 ) ;
#147 = PERSON_AND_ORGANIZATION_ROLE ( 'creator' ) ;
#148 = CIRCLE ( 'NONE', #36, 24.00000000000000400 ) ;
#149 = PRODUCT_DEFINITION ( 'UNKNOWN', '', #67, #109 ) ;
#150 = APPROVAL_ROLE ( '' ) ;
#151 = CIRCLE ( 'NONE', #95, 24.00000000000000400 ) ;
#152 = MANIFOLD_SOLID_BREP ( 'Extrude-Thin1', #223 ) ;
#153 = COORDINATED_UNIVERSAL_TIME_OFFSET ( 0, 0, .AHEAD. ) ;
#154 = EDGE_CURVE ( 'NONE', #116, #235, #114, .T. ) ;
#155 = ORGANIZATION ( 'UNSPECIFIED', 'UNSPECIFIED', '' ) ;
#156 = CARTESIAN_POINT ( 'NONE',  ( 1000.000000000000000, 0.0000000000000000000, 19.00000000000000400 ) ) ;
#157 = CARTESIAN_POINT ( 'NONE',  ( 1000.000000000000000, 0.0000000000000000000, 24.00000000000000400 ) ) ;
#158 = DATE_AND_TIME ( #37, #53 ) ;
#159 = ADVANCED_FACE ( 'NONE', ( #17, #187 ), #61, .F. ) ;
#160 = DIRECTION ( 'NONE',  ( -1.000000000000000000, -0.0000000000000000000, -0.0000000000000000000 ) ) ;
#161 = PERSON_AND_ORGANIZATION ( #71, #155 ) ;
#162 =( NAMED_UNIT ( * ) PLANE_ANGLE_UNIT ( ) SI_UNIT ( $, .RADIAN. ) );
#163 = VECTOR ( 'NONE', #3, 1000.000000000000000 ) ;
#164 = CC_DESIGN_APPROVAL ( #89, ( #149 ) ) ;
#165 = EDGE_CURVE ( 'NONE', #248, #127, #91, .T. ) ;
#166 = PRODUCT ( 'T2400201', 'T2400201', '', ( #212 ) ) ;
#167 = ORIENTED_EDGE ( 'NONE', *, *, #57, .F. ) ;
#168 = VECTOR ( 'NONE', #105, 1000.000000000000000 ) ;
#169 = ORIENTED_EDGE ( 'NONE', *, *, #195, .T. ) ;
#170 = EDGE_CURVE ( 'NONE', #66, #48, #205, .T. ) ;
#171 = PERSON_AND_ORGANIZATION ( #71, #155 ) ;
#172 = ORIENTED_EDGE ( 'NONE', *, *, #195, .F. ) ;
#173 = CARTESIAN_POINT ( 'NONE',  ( -1000.000000000000000, 0.0000000000000000000, 0.0000000000000000000 ) ) ;
#174 = AXIS2_PLACEMENT_3D ( 'NONE', #173, #191, #189 ) ;
#175 = ORIENTED_EDGE ( 'NONE', *, *, #124, .T. ) ;
#176 = DIRECTION ( 'NONE',  ( 0.0000000000000000000, 0.0000000000000000000, -1.000000000000000000 ) ) ;
#177 =( NAMED_UNIT ( * ) SI_UNIT ( $, .STERADIAN. ) SOLID_ANGLE_UNIT ( ) );
#178 = FACE_OUTER_BOUND ( 'NONE', #238, .T. ) ;
#179 = CARTESIAN_POINT ( 'NONE',  ( 1000.000000000000000, 0.0000000000000000000, 0.0000000000000000000 ) ) ;
#180 = APPROVAL_STATUS ( 'not_yet_approved' ) ;
#181 = PERSON_AND_ORGANIZATION ( #71, #155 ) ;
#182 = EDGE_LOOP ( 'NONE', ( #172, #225 ) ) ;
#183 = CC_DESIGN_PERSON_AND_ORGANIZATION_ASSIGNMENT ( #7, #147, ( #149 ) ) ;
#184 = PERSON_AND_ORGANIZATION ( #71, #155 ) ;
#185 = CYLINDRICAL_SURFACE ( 'NONE', #15, 19.00000000000000400 ) ;
#186 = AXIS2_PLACEMENT_3D ( 'NONE', #27, #122, #63 ) ;
#187 = FACE_BOUND ( 'NONE', #208, .T. ) ;
#188 = CARTESIAN_POINT ( 'NONE',  ( 1000.000000000000000, 0.0000000000000000000, 0.0000000000000000000 ) ) ;
#189 = DIRECTION ( 'NONE',  ( 0.0000000000000000000, 0.0000000000000000000, -1.000000000000000000 ) ) ;
#190 = ADVANCED_FACE ( 'NONE', ( #54 ), #196, .T. ) ;
#191 = DIRECTION ( 'NONE',  ( 1.000000000000000000, 0.0000000000000000000, 0.0000000000000000000 ) ) ;
#192 = ORIENTED_EDGE ( 'NONE', *, *, #19, .F. ) ;
#193 = DIRECTION ( 'NONE',  ( -1.000000000000000000, -0.0000000000000000000, -0.0000000000000000000 ) ) ;
#194 = CARTESIAN_POINT ( 'NONE',  ( 0.0000000000000000000, 0.0000000000000000000, 0.0000000000000000000 ) ) ;
#195 = EDGE_CURVE ( 'NONE', #235, #116, #151, .T. ) ;
#196 = CYLINDRICAL_SURFACE ( 'NONE', #144, 24.00000000000000400 ) ;
#197 = DIRECTION ( 'NONE',  ( 0.0000000000000000000, 0.0000000000000000000, -1.000000000000000000 ) ) ;
#198 = DIRECTION ( 'NONE',  ( 1.000000000000000000, 0.0000000000000000000, 0.0000000000000000000 ) ) ;
#199 = PERSON_AND_ORGANIZATION ( #71, #155 ) ;
#200 = ORIENTED_EDGE ( 'NONE', *, *, #129, .T. ) ;
#201 = SECURITY_CLASSIFICATION ( '', '', #29 ) ;
#202 = PERSON_AND_ORGANIZATION_ROLE ( 'classification_officer' ) ;
#203 = EDGE_CURVE ( 'NONE', #55, #116, #42, .T. ) ;
#204 = VECTOR ( 'NONE', #43, 1000.000000000000000 ) ;
#205 = CIRCLE ( 'NONE', #75, 19.00000000000000400 ) ;
#206 = CALENDAR_DATE ( 2018, 17, 7 ) ;
#207 = SHAPE_DEFINITION_REPRESENTATION ( #46, #12 ) ;
#208 = EDGE_LOOP ( 'NONE', ( #33, #18 ) ) ;
#209 = ADVANCED_FACE ( 'NONE', ( #228 ), #47, .F. ) ;
#210 = CC_DESIGN_DATE_AND_TIME_ASSIGNMENT ( #76, #68, ( #201 ) ) ;
#211 = DATE_AND_TIME ( #206, #237 ) ;
#212 = MECHANICAL_CONTEXT ( 'NONE', #60, 'mechanical' ) ;
#213 = APPROVAL ( #180, 'UNSPECIFIED' ) ;
#214 = CARTESIAN_POINT ( 'NONE',  ( -1000.000000000000000, 0.0000000000000000000, 0.0000000000000000000 ) ) ;
#215 = CIRCLE ( 'NONE', #174, 19.00000000000000400 ) ;
#216 = DIRECTION ( 'NONE',  ( 0.0000000000000000000, 0.0000000000000000000, -1.000000000000000000 ) ) ;
#217 = LINE ( 'NONE', #38, #168 ) ;
#218 = CC_DESIGN_APPROVAL ( #213, ( #201 ) ) ;
#219 = AXIS2_PLACEMENT_3D ( 'NONE', #227, #139, #126 ) ;
#220 = CALENDAR_DATE ( 2018, 17, 7 ) ;
#221 = EDGE_LOOP ( 'NONE', ( #40, #14 ) ) ;
#222 = PRODUCT_RELATED_PRODUCT_CATEGORY ( 'detail', '', ( #166 ) ) ;
#223 = CLOSED_SHELL ( 'NONE', ( #56, #134, #74, #159, #190, #209 ) ) ;
#224 = APPROVAL ( #49, 'UNSPECIFIED' ) ;
#225 = ORIENTED_EDGE ( 'NONE', *, *, #154, .F. ) ;
#226 = CARTESIAN_POINT ( 'NONE',  ( 1000.000000000000000, 0.0000000000000000000, 0.0000000000000000000 ) ) ;
#227 = CARTESIAN_POINT ( 'NONE',  ( 1000.000000000000000, 0.0000000000000000000, 0.0000000000000000000 ) ) ;
#228 = FACE_OUTER_BOUND ( 'NONE', #77, .T. ) ;
#229 = ORIENTED_EDGE ( 'NONE', *, *, #57, .T. ) ;
#230 = DIRECTION ( 'NONE',  ( 1.000000000000000000, 0.0000000000000000000, 0.0000000000000000000 ) ) ;
#231 = CC_DESIGN_DATE_AND_TIME_ASSIGNMENT ( #13, #113, ( #149 ) ) ;
#232 =( LENGTH_UNIT ( ) NAMED_UNIT ( * ) SI_UNIT ( .MILLI., .METRE. ) );
#233 = CARTESIAN_POINT ( 'NONE',  ( -1000.000000000000000, 0.0000000000000000000, 0.0000000000000000000 ) ) ;
#234 = DATE_AND_TIME ( #244, #32 ) ;
#235 = VERTEX_POINT ( 'NONE', #24 ) ;
#236 = PERSON_AND_ORGANIZATION_ROLE ( 'design_supplier' ) ;
#237 = LOCAL_TIME ( 11, 43, 48.00000000000000000, #153 ) ;
#238 = EDGE_LOOP ( 'NONE', ( #59, #131, #87, #104 ) ) ;
#239 = APPROVAL_STATUS ( 'not_yet_approved' ) ;
#240 = AXIS2_PLACEMENT_3D ( 'NONE', #226, #246, #78 ) ;
#241 = APPROVAL_PERSON_ORGANIZATION ( #130, #224, #93 ) ;
#242 = ORIENTED_EDGE ( 'NONE', *, *, #165, .T. ) ;
#243 = CC_DESIGN_PERSON_AND_ORGANIZATION_ASSIGNMENT ( #181, #128, ( #67 ) ) ;
#244 = CALENDAR_DATE ( 2018, 17, 7 ) ;
#245 = DIRECTION ( 'NONE',  ( -1.000000000000000000, -0.0000000000000000000, -0.0000000000000000000 ) ) ;
#246 = DIRECTION ( 'NONE',  ( 1.000000000000000000, 0.0000000000000000000, 0.0000000000000000000 ) ) ;
#247 = COORDINATED_UNIVERSAL_TIME_OFFSET ( 0, 0, .AHEAD. ) ;
#248 = VERTEX_POINT ( 'NONE', #41 ) ;
#249 = CARTESIAN_POINT ( 'NONE',  ( -1000.000000000000000, 2.939152317953648300E-015, -24.00000000000000400 ) ) ;
ENDSEC;
END-ISO-10303-21;
