ISO-10303-21;
HEADER;
FILE_DESCRIPTION (( 'STEP AP203' ),
    '1' );
FILE_NAME ('T24002.STEP',
    '2018-07-17T10:37:28',
    ( '' ),
    ( '' ),
    'SwSTEP 2.0',
    'SolidWorks 2016',
    '' );
FILE_SCHEMA (( 'CONFIG_CONTROL_DESIGN' ));
ENDSEC;

DATA;
#1 = CALENDAR_DATE ( 2018, 17, 7 ) ;
#2 = CLOSED_SHELL ( 'NONE', ( #53, #202, #77, #91, #249, #246 ) ) ;
#3 = DIRECTION ( 'NONE',  ( 1.000000000000000000, 0.0000000000000000000, 0.0000000000000000000 ) ) ;
#4 = EDGE_LOOP ( 'NONE', ( #136, #248 ) ) ;
#5 = PRODUCT_DEFINITION_FORMATION_WITH_SPECIFIED_SOURCE ( 'ANY', '', #140, .NOT_KNOWN. ) ;
#6 = DIRECTION ( 'NONE',  ( 0.0000000000000000000, 0.0000000000000000000, -1.000000000000000000 ) ) ;
#7 = DIRECTION ( 'NONE',  ( 0.0000000000000000000, 0.0000000000000000000, 1.000000000000000000 ) ) ;
#8 = LOCAL_TIME ( 11, 37, 28.00000000000000000, #166 ) ;
#9 = APPLICATION_PROTOCOL_DEFINITION ( 'international standard', 'config_control_design', 1994, #84 ) ;
#10 =( GEOMETRIC_REPRESENTATION_CONTEXT ( 3 ) GLOBAL_UNCERTAINTY_ASSIGNED_CONTEXT ( ( #229 ) ) GLOBAL_UNIT_ASSIGNED_CONTEXT ( ( #238, #218, #105 ) ) REPRESENTATION_CONTEXT ( 'NONE', 'WORKASPACE' ) );
#11 = DIRECTION ( 'NONE',  ( -1.000000000000000000, -0.0000000000000000000, -0.0000000000000000000 ) ) ;
#12 = PERSON_AND_ORGANIZATION_ROLE ( 'classification_officer' ) ;
#13 = CC_DESIGN_PERSON_AND_ORGANIZATION_ASSIGNMENT ( #80, #73, ( #5 ) ) ;
#14 = ORIENTED_EDGE ( 'NONE', *, *, #220, .F. ) ;
#15 = AXIS2_PLACEMENT_3D ( 'NONE', #150, #199, #68 ) ;
#16 = COORDINATED_UNIVERSAL_TIME_OFFSET ( 0, 0, .AHEAD. ) ;
#17 = FACE_OUTER_BOUND ( 'NONE', #139, .T. ) ;
#18 = EDGE_LOOP ( 'NONE', ( #208, #172 ) ) ;
#19 = COORDINATED_UNIVERSAL_TIME_OFFSET ( 0, 0, .AHEAD. ) ;
#20 = CARTESIAN_POINT ( 'NONE',  ( -1000.000000000000000, 0.0000000000000000000, 0.0000000000000000000 ) ) ;
#21 = CALENDAR_DATE ( 2018, 17, 7 ) ;
#22 = DIRECTION ( 'NONE',  ( 1.000000000000000000, 0.0000000000000000000, 0.0000000000000000000 ) ) ;
#23 = DIRECTION ( 'NONE',  ( 0.0000000000000000000, 0.0000000000000000000, 1.000000000000000000 ) ) ;
#24 = COORDINATED_UNIVERSAL_TIME_OFFSET ( 0, 0, .AHEAD. ) ;
#25 = PERSON_AND_ORGANIZATION ( #171, #60 ) ;
#26 = VERTEX_POINT ( 'NONE', #174 ) ;
#27 = DIRECTION ( 'NONE',  ( 0.0000000000000000000, 0.0000000000000000000, 1.000000000000000000 ) ) ;
#28 = DIRECTION ( 'NONE',  ( 1.000000000000000000, 0.0000000000000000000, 0.0000000000000000000 ) ) ;
#29 = CARTESIAN_POINT ( 'NONE',  ( 0.0000000000000000000, 0.0000000000000000000, 0.0000000000000000000 ) ) ;
#30 = AXIS2_PLACEMENT_3D ( 'NONE', #217, #28, #192 ) ;
#31 = CIRCLE ( 'NONE', #30, 24.00000000000000400 ) ;
#32 = ORIENTED_EDGE ( 'NONE', *, *, #205, .F. ) ;
#33 = ORIENTED_EDGE ( 'NONE', *, *, #216, .T. ) ;
#34 = DATE_AND_TIME ( #1, #114 ) ;
#35 = FACE_OUTER_BOUND ( 'NONE', #193, .T. ) ;
#36 = VERTEX_POINT ( 'NONE', #234 ) ;
#37 = AXIS2_PLACEMENT_3D ( 'NONE', #20, #176, #40 ) ;
#38 = CC_DESIGN_PERSON_AND_ORGANIZATION_ASSIGNMENT ( #64, #113, ( #5 ) ) ;
#39 = CYLINDRICAL_SURFACE ( 'NONE', #120, 24.00000000000000400 ) ;
#40 = DIRECTION ( 'NONE',  ( 0.0000000000000000000, 0.0000000000000000000, -1.000000000000000000 ) ) ;
#41 = AXIS2_PLACEMENT_3D ( 'NONE', #181, #130, #66 ) ;
#42 = CC_DESIGN_SECURITY_CLASSIFICATION ( #86, ( #5 ) ) ;
#43 = CIRCLE ( 'NONE', #41, 19.00000000000000400 ) ;
#44 = ORIENTED_EDGE ( 'NONE', *, *, #185, .T. ) ;
#45 = DIRECTION ( 'NONE',  ( 1.000000000000000000, 0.0000000000000000000, 0.0000000000000000000 ) ) ;
#46 = CARTESIAN_POINT ( 'NONE',  ( 1000.000000000000000, 0.0000000000000000000, 0.0000000000000000000 ) ) ;
#47 = EDGE_LOOP ( 'NONE', ( #204, #227 ) ) ;
#48 = APPROVAL_ROLE ( '' ) ;
#49 = APPROVAL_STATUS ( 'not_yet_approved' ) ;
#50 = ORIENTED_EDGE ( 'NONE', *, *, #168, .F. ) ;
#51 = APPROVAL_STATUS ( 'not_yet_approved' ) ;
#52 = AXIS2_PLACEMENT_3D ( 'NONE', #65, #180, #6 ) ;
#53 = ADVANCED_FACE ( 'NONE', ( #178 ), #121, .F. ) ;
#54 = PERSON_AND_ORGANIZATION ( #171, #60 ) ;
#55 = CIRCLE ( 'NONE', #52, 24.00000000000000400 ) ;
#56 = ORIENTED_EDGE ( 'NONE', *, *, #75, .F. ) ;
#57 = CARTESIAN_POINT ( 'NONE',  ( -1000.000000000000000, 0.0000000000000000000, 0.0000000000000000000 ) ) ;
#58 = CARTESIAN_POINT ( 'NONE',  ( -1000.000000000000000, 0.0000000000000000000, 24.00000000000000400 ) ) ;
#59 = CARTESIAN_POINT ( 'NONE',  ( 1000.000000000000000, 0.0000000000000000000, 0.0000000000000000000 ) ) ;
#60 = ORGANIZATION ( 'UNSPECIFIED', 'UNSPECIFIED', '' ) ;
#61 = AXIS2_PLACEMENT_3D ( 'NONE', #29, #111, #45 ) ;
#62 = PERSON_AND_ORGANIZATION_ROLE ( 'design_owner' ) ;
#63 = DIRECTION ( 'NONE',  ( -1.000000000000000000, -0.0000000000000000000, -0.0000000000000000000 ) ) ;
#64 = PERSON_AND_ORGANIZATION ( #171, #60 ) ;
#65 = CARTESIAN_POINT ( 'NONE',  ( 1000.000000000000000, 0.0000000000000000000, 0.0000000000000000000 ) ) ;
#66 = DIRECTION ( 'NONE',  ( 0.0000000000000000000, 0.0000000000000000000, -1.000000000000000000 ) ) ;
#67 = ORIENTED_EDGE ( 'NONE', *, *, #126, .F. ) ;
#68 = DIRECTION ( 'NONE',  ( 0.0000000000000000000, 0.0000000000000000000, -1.000000000000000000 ) ) ;
#69 = APPROVAL_PERSON_ORGANIZATION ( #170, #167, #236 ) ;
#70 = EDGE_CURVE ( 'NONE', #233, #36, #152, .T. ) ;
#71 = FACE_BOUND ( 'NONE', #4, .T. ) ;
#72 = ORIENTED_EDGE ( 'NONE', *, *, #70, .F. ) ;
#73 = PERSON_AND_ORGANIZATION_ROLE ( 'design_supplier' ) ;
#74 = APPROVAL ( #49, 'UNSPECIFIED' ) ;
#75 = EDGE_CURVE ( 'NONE', #213, #36, #182, .T. ) ;
#76 = APPROVAL_DATE_TIME ( #133, #167 ) ;
#77 = ADVANCED_FACE ( 'NONE', ( #226, #71 ), #146, .T. ) ;
#78 = CC_DESIGN_APPROVAL ( #243, ( #86 ) ) ;
#79 = DIRECTION ( 'NONE',  ( 1.000000000000000000, 0.0000000000000000000, 0.0000000000000000000 ) ) ;
#80 = PERSON_AND_ORGANIZATION ( #171, #60 ) ;
#81 = PLANE ( 'NONE',  #37 ) ;
#82 = LINE ( 'NONE', #215, #200 ) ;
#83 = CARTESIAN_POINT ( 'NONE',  ( 1000.000000000000000, 0.0000000000000000000, 24.00000000000000400 ) ) ;
#84 = APPLICATION_CONTEXT ( 'configuration controlled 3d designs of mechanical parts and assemblies' ) ;
#85 = COORDINATED_UNIVERSAL_TIME_OFFSET ( 0, 0, .AHEAD. ) ;
#86 = SECURITY_CLASSIFICATION ( '', '', #161 ) ;
#87 = CARTESIAN_POINT ( 'NONE',  ( 1000.000000000000000, 0.0000000000000000000, 0.0000000000000000000 ) ) ;
#88 = FACE_OUTER_BOUND ( 'NONE', #188, .T. ) ;
#89 = APPROVAL_PERSON_ORGANIZATION ( #135, #243, #242 ) ;
#90 = AXIS2_PLACEMENT_3D ( 'NONE', #97, #79, #232 ) ;
#91 = ADVANCED_FACE ( 'NONE', ( #17, #198 ), #81, .F. ) ;
#92 = ORIENTED_EDGE ( 'NONE', *, *, #70, .T. ) ;
#93 = LINE ( 'NONE', #160, #203 ) ;
#94 = EDGE_CURVE ( 'NONE', #102, #233, #190, .T. ) ;
#95 = CC_DESIGN_DATE_AND_TIME_ASSIGNMENT ( #34, #223, ( #86 ) ) ;
#96 = CALENDAR_DATE ( 2018, 17, 7 ) ;
#97 = CARTESIAN_POINT ( 'NONE',  ( 1000.000000000000000, 0.0000000000000000000, 0.0000000000000000000 ) ) ;
#98 = ORIENTED_EDGE ( 'NONE', *, *, #185, .F. ) ;
#99 = CARTESIAN_POINT ( 'NONE',  ( 1000.000000000000000, 0.0000000000000000000, 0.0000000000000000000 ) ) ;
#100 = CARTESIAN_POINT ( 'NONE',  ( -1000.000000000000000, 0.0000000000000000000, 0.0000000000000000000 ) ) ;
#101 = DIRECTION ( 'NONE',  ( -1.000000000000000000, -0.0000000000000000000, -0.0000000000000000000 ) ) ;
#102 = VERTEX_POINT ( 'NONE', #141 ) ;
#103 = PRODUCT_DEFINITION ( 'UNKNOWN', '', #5, #125 ) ;
#104 = APPROVAL_STATUS ( 'not_yet_approved' ) ;
#105 =( NAMED_UNIT ( * ) SI_UNIT ( $, .STERADIAN. ) SOLID_ANGLE_UNIT ( ) );
#106 = DATE_AND_TIME ( #129, #201 ) ;
#107 = DIRECTION ( 'NONE',  ( 1.000000000000000000, 0.0000000000000000000, 0.0000000000000000000 ) ) ;
#108 = CIRCLE ( 'NONE', #237, 24.00000000000000400 ) ;
#109 = PRODUCT_DEFINITION_SHAPE ( 'NONE', 'NONE',  #103 ) ;
#110 = ORIENTED_EDGE ( 'NONE', *, *, #153, .T. ) ;
#111 = DIRECTION ( 'NONE',  ( 0.0000000000000000000, 0.0000000000000000000, 1.000000000000000000 ) ) ;
#112 = CC_DESIGN_DATE_AND_TIME_ASSIGNMENT ( #173, #164, ( #103 ) ) ;
#113 = PERSON_AND_ORGANIZATION_ROLE ( 'creator' ) ;
#114 = LOCAL_TIME ( 11, 37, 28.00000000000000000, #24 ) ;
#115 = ORIENTED_EDGE ( 'NONE', *, *, #214, .F. ) ;
#116 = VERTEX_POINT ( 'NONE', #58 ) ;
#117 = DIRECTION ( 'NONE',  ( 0.0000000000000000000, 0.0000000000000000000, 1.000000000000000000 ) ) ;
#118 = LOCAL_TIME ( 11, 37, 28.00000000000000000, #16 ) ;
#119 = DIRECTION ( 'NONE',  ( 0.0000000000000000000, 0.0000000000000000000, -1.000000000000000000 ) ) ;
#120 = AXIS2_PLACEMENT_3D ( 'NONE', #99, #155, #23 ) ;
#121 = CYLINDRICAL_SURFACE ( 'NONE', #194, 19.00000000000000400 ) ;
#122 = ORIENTED_EDGE ( 'NONE', *, *, #220, .T. ) ;
#123 = EDGE_CURVE ( 'NONE', #26, #116, #108, .T. ) ;
#124 = DIRECTION ( 'NONE',  ( -1.000000000000000000, -0.0000000000000000000, -0.0000000000000000000 ) ) ;
#125 = DESIGN_CONTEXT ( 'detailed design', #84, 'design' ) ;
#126 = EDGE_CURVE ( 'NONE', #154, #134, #55, .T. ) ;
#127 = PERSON_AND_ORGANIZATION_ROLE ( 'creator' ) ;
#128 = CC_DESIGN_PERSON_AND_ORGANIZATION_ASSIGNMENT ( #54, #12, ( #86 ) ) ;
#129 = CALENDAR_DATE ( 2018, 17, 7 ) ;
#130 = DIRECTION ( 'NONE',  ( 1.000000000000000000, 0.0000000000000000000, 0.0000000000000000000 ) ) ;
#131 = CARTESIAN_POINT ( 'NONE',  ( 1000.000000000000000, 2.326828918379971400E-015, -19.00000000000000400 ) ) ;
#132 = MECHANICAL_CONTEXT ( 'NONE', #157, 'mechanical' ) ;
#133 = DATE_AND_TIME ( #21, #118 ) ;
#134 = VERTEX_POINT ( 'NONE', #211 ) ;
#135 = PERSON_AND_ORGANIZATION ( #171, #60 ) ;
#136 = ORIENTED_EDGE ( 'NONE', *, *, #94, .F. ) ;
#137 = AXIS2_PLACEMENT_3D ( 'NONE', #46, #107, #149 ) ;
#138 = PRODUCT_RELATED_PRODUCT_CATEGORY ( 'detail', '', ( #140 ) ) ;
#139 = EDGE_LOOP ( 'NONE', ( #32, #144 ) ) ;
#140 = PRODUCT ( 'T24002', 'T24002', '', ( #132 ) ) ;
#141 = CARTESIAN_POINT ( 'NONE',  ( 1000.000000000000000, 0.0000000000000000000, 19.00000000000000400 ) ) ;
#142 = DIRECTION ( 'NONE',  ( 1.000000000000000000, 0.0000000000000000000, 0.0000000000000000000 ) ) ;
#143 = FACE_OUTER_BOUND ( 'NONE', #147, .T. ) ;
#144 = ORIENTED_EDGE ( 'NONE', *, *, #123, .F. ) ;
#145 = DIRECTION ( 'NONE',  ( 0.0000000000000000000, 0.0000000000000000000, -1.000000000000000000 ) ) ;
#146 = PLANE ( 'NONE',  #228 ) ;
#147 = EDGE_LOOP ( 'NONE', ( #115, #122, #186, #98 ) ) ;
#148 = DIRECTION ( 'NONE',  ( -1.000000000000000000, -0.0000000000000000000, -0.0000000000000000000 ) ) ;
#149 = DIRECTION ( 'NONE',  ( 0.0000000000000000000, 0.0000000000000000000, -1.000000000000000000 ) ) ;
#150 = CARTESIAN_POINT ( 'NONE',  ( -1000.000000000000000, 0.0000000000000000000, 0.0000000000000000000 ) ) ;
#151 = CIRCLE ( 'NONE', #137, 19.00000000000000400 ) ;
#152 = LINE ( 'NONE', #209, #187 ) ;
#153 = EDGE_CURVE ( 'NONE', #102, #213, #82, .T. ) ;
#154 = VERTEX_POINT ( 'NONE', #83 ) ;
#155 = DIRECTION ( 'NONE',  ( -1.000000000000000000, -0.0000000000000000000, -0.0000000000000000000 ) ) ;
#156 = CARTESIAN_POINT ( 'NONE',  ( 1000.000000000000000, 0.0000000000000000000, 0.0000000000000000000 ) ) ;
#157 = APPLICATION_CONTEXT ( 'configuration controlled 3d designs of mechanical parts and assemblies' ) ;
#158 = PERSON_AND_ORGANIZATION ( #171, #60 ) ;
#159 = DIRECTION ( 'NONE',  ( -1.000000000000000000, -0.0000000000000000000, -0.0000000000000000000 ) ) ;
#160 = CARTESIAN_POINT ( 'NONE',  ( 1000.000000000000000, 2.939152317953648300E-015, -24.00000000000000400 ) ) ;
#161 = SECURITY_CLASSIFICATION_LEVEL ( 'unclassified' ) ;
#162 = ADVANCED_BREP_SHAPE_REPRESENTATION ( 'T24002', ( #225, #61 ), #10 ) ;
#163 = CIRCLE ( 'NONE', #15, 24.00000000000000400 ) ;
#164 = DATE_TIME_ROLE ( 'creation_date' ) ;
#165 = CC_DESIGN_PERSON_AND_ORGANIZATION_ASSIGNMENT ( #25, #62, ( #140 ) ) ;
#166 = COORDINATED_UNIVERSAL_TIME_OFFSET ( 0, 0, .AHEAD. ) ;
#167 = APPROVAL ( #104, 'UNSPECIFIED' ) ;
#168 = EDGE_CURVE ( 'NONE', #36, #213, #43, .T. ) ;
#169 = CALENDAR_DATE ( 2018, 17, 7 ) ;
#170 = PERSON_AND_ORGANIZATION ( #171, #60 ) ;
#171 = PERSON ( 'UNSPECIFIED', 'UNSPECIFIED', 'UNSPECIFIED', ('UNSPECIFIED'), ('UNSPECIFIED'), ('UNSPECIFIED') ) ;
#172 = ORIENTED_EDGE ( 'NONE', *, *, #214, .T. ) ;
#173 = DATE_AND_TIME ( #169, #8 ) ;
#174 = CARTESIAN_POINT ( 'NONE',  ( -1000.000000000000000, 2.939152317953648300E-015, -24.00000000000000400 ) ) ;
#175 = LINE ( 'NONE', #240, #247 ) ;
#176 = DIRECTION ( 'NONE',  ( 1.000000000000000000, 0.0000000000000000000, 0.0000000000000000000 ) ) ;
#177 = EDGE_LOOP ( 'NONE', ( #230, #92, #56, #241 ) ) ;
#178 = FACE_OUTER_BOUND ( 'NONE', #177, .T. ) ;
#179 = APPLICATION_PROTOCOL_DEFINITION ( 'international standard', 'config_control_design', 1994, #157 ) ;
#180 = DIRECTION ( 'NONE',  ( 1.000000000000000000, 0.0000000000000000000, 0.0000000000000000000 ) ) ;
#181 = CARTESIAN_POINT ( 'NONE',  ( -1000.000000000000000, 0.0000000000000000000, 0.0000000000000000000 ) ) ;
#182 = CIRCLE ( 'NONE', #206, 19.00000000000000400 ) ;
#183 = ORIENTED_EDGE ( 'NONE', *, *, #205, .T. ) ;
#184 = CC_DESIGN_APPROVAL ( #167, ( #103 ) ) ;
#185 = EDGE_CURVE ( 'NONE', #154, #116, #175, .T. ) ;
#186 = ORIENTED_EDGE ( 'NONE', *, *, #123, .T. ) ;
#187 = VECTOR ( 'NONE', #124, 1000.000000000000000 ) ;
#188 = EDGE_LOOP ( 'NONE', ( #72, #33, #110, #50 ) ) ;
#189 = DIRECTION ( 'NONE',  ( 0.0000000000000000000, 0.0000000000000000000, -1.000000000000000000 ) ) ;
#190 = CIRCLE ( 'NONE', #90, 19.00000000000000400 ) ;
#191 = AXIS2_PLACEMENT_3D ( 'NONE', #87, #148, #7 ) ;
#192 = DIRECTION ( 'NONE',  ( 0.0000000000000000000, 0.0000000000000000000, -1.000000000000000000 ) ) ;
#193 = EDGE_LOOP ( 'NONE', ( #14, #67, #44, #183 ) ) ;
#194 = AXIS2_PLACEMENT_3D ( 'NONE', #59, #101, #117 ) ;
#195 = DIRECTION ( 'NONE',  ( -1.000000000000000000, -0.0000000000000000000, -0.0000000000000000000 ) ) ;
#196 = CARTESIAN_POINT ( 'NONE',  ( -1000.000000000000000, 0.0000000000000000000, 19.00000000000000400 ) ) ;
#197 = APPROVAL_DATE_TIME ( #239, #243 ) ;
#198 = FACE_BOUND ( 'NONE', #47, .T. ) ;
#199 = DIRECTION ( 'NONE',  ( 1.000000000000000000, 0.0000000000000000000, 0.0000000000000000000 ) ) ;
#200 = VECTOR ( 'NONE', #11, 1000.000000000000000 ) ;
#201 = LOCAL_TIME ( 11, 37, 28.00000000000000000, #19 ) ;
#202 = ADVANCED_FACE ( 'NONE', ( #143 ), #39, .T. ) ;
#203 = VECTOR ( 'NONE', #195, 1000.000000000000000 ) ;
#204 = ORIENTED_EDGE ( 'NONE', *, *, #75, .T. ) ;
#205 = EDGE_CURVE ( 'NONE', #116, #26, #163, .T. ) ;
#206 = AXIS2_PLACEMENT_3D ( 'NONE', #100, #3, #189 ) ;
#207 = APPROVAL_PERSON_ORGANIZATION ( #158, #74, #48 ) ;
#208 = ORIENTED_EDGE ( 'NONE', *, *, #126, .T. ) ;
#209 = CARTESIAN_POINT ( 'NONE',  ( 1000.000000000000000, 2.326828918379971400E-015, -19.00000000000000400 ) ) ;
#210 = CARTESIAN_POINT ( 'NONE',  ( 1000.000000000000000, 0.0000000000000000000, 0.0000000000000000000 ) ) ;
#211 = CARTESIAN_POINT ( 'NONE',  ( 1000.000000000000000, 2.939152317953648300E-015, -24.00000000000000400 ) ) ;
#212 = CYLINDRICAL_SURFACE ( 'NONE', #231, 24.00000000000000400 ) ;
#213 = VERTEX_POINT ( 'NONE', #196 ) ;
#214 = EDGE_CURVE ( 'NONE', #134, #154, #31, .T. ) ;
#215 = CARTESIAN_POINT ( 'NONE',  ( 1000.000000000000000, 0.0000000000000000000, 19.00000000000000400 ) ) ;
#216 = EDGE_CURVE ( 'NONE', #233, #102, #151, .T. ) ;
#217 = CARTESIAN_POINT ( 'NONE',  ( 1000.000000000000000, 0.0000000000000000000, 0.0000000000000000000 ) ) ;
#218 =( NAMED_UNIT ( * ) PLANE_ANGLE_UNIT ( ) SI_UNIT ( $, .RADIAN. ) );
#219 = PERSON_AND_ORGANIZATION ( #171, #60 ) ;
#220 = EDGE_CURVE ( 'NONE', #134, #26, #93, .T. ) ;
#221 = LOCAL_TIME ( 11, 37, 28.00000000000000000, #85 ) ;
#222 = CC_DESIGN_PERSON_AND_ORGANIZATION_ASSIGNMENT ( #219, #127, ( #103 ) ) ;
#223 = DATE_TIME_ROLE ( 'classification_date' ) ;
#224 = CC_DESIGN_APPROVAL ( #74, ( #5 ) ) ;
#225 = MANIFOLD_SOLID_BREP ( 'Extrude-Thin1', #2 ) ;
#226 = FACE_OUTER_BOUND ( 'NONE', #18, .T. ) ;
#227 = ORIENTED_EDGE ( 'NONE', *, *, #168, .T. ) ;
#228 = AXIS2_PLACEMENT_3D ( 'NONE', #210, #22, #145 ) ;
#229 = UNCERTAINTY_MEASURE_WITH_UNIT (LENGTH_MEASURE( 1.000000000000000100E-005 ), #238, 'distance_accuracy_value', 'NONE');
#230 = ORIENTED_EDGE ( 'NONE', *, *, #94, .T. ) ;
#231 = AXIS2_PLACEMENT_3D ( 'NONE', #156, #63, #27 ) ;
#232 = DIRECTION ( 'NONE',  ( 0.0000000000000000000, 0.0000000000000000000, -1.000000000000000000 ) ) ;
#233 = VERTEX_POINT ( 'NONE', #131 ) ;
#234 = CARTESIAN_POINT ( 'NONE',  ( -1000.000000000000000, 2.326828918379971400E-015, -19.00000000000000400 ) ) ;
#235 = SHAPE_DEFINITION_REPRESENTATION ( #109, #162 ) ;
#236 = APPROVAL_ROLE ( '' ) ;
#237 = AXIS2_PLACEMENT_3D ( 'NONE', #57, #142, #119 ) ;
#238 =( LENGTH_UNIT ( ) NAMED_UNIT ( * ) SI_UNIT ( .MILLI., .METRE. ) );
#239 = DATE_AND_TIME ( #96, #221 ) ;
#240 = CARTESIAN_POINT ( 'NONE',  ( 1000.000000000000000, 0.0000000000000000000, 24.00000000000000400 ) ) ;
#241 = ORIENTED_EDGE ( 'NONE', *, *, #153, .F. ) ;
#242 = APPROVAL_ROLE ( '' ) ;
#243 = APPROVAL ( #51, 'UNSPECIFIED' ) ;
#244 = CYLINDRICAL_SURFACE ( 'NONE', #191, 19.00000000000000400 ) ;
#245 = APPROVAL_DATE_TIME ( #106, #74 ) ;
#246 = ADVANCED_FACE ( 'NONE', ( #88 ), #244, .F. ) ;
#247 = VECTOR ( 'NONE', #159, 1000.000000000000000 ) ;
#248 = ORIENTED_EDGE ( 'NONE', *, *, #216, .F. ) ;
#249 = ADVANCED_FACE ( 'NONE', ( #35 ), #212, .T. ) ;
ENDSEC;
END-ISO-10303-21;
