ISO-10303-21;
HEADER;
FILE_DESCRIPTION (( 'STEP AP203' ),
    '1' );
FILE_NAME ('T2400101.STEP',
    '2018-07-17T09:19:34',
    ( '' ),
    ( '' ),
    'SwSTEP 2.0',
    'SolidWorks 2016',
    '' );
FILE_SCHEMA (( 'CONFIG_CONTROL_DESIGN' ));
ENDSEC;

DATA;
#1 = EDGE_CURVE ( 'NONE', #109, #195, #126, .T. ) ;
#2 = ORIENTED_EDGE ( 'NONE', *, *, #88, .F. ) ;
#3 = APPROVAL_PERSON_ORGANIZATION ( #170, #233, #94 ) ;
#4 = COORDINATED_UNIVERSAL_TIME_OFFSET ( 0, 0, .AHEAD. ) ;
#5 = EDGE_LOOP ( 'NONE', ( #73, #82 ) ) ;
#6 = ORIENTED_EDGE ( 'NONE', *, *, #1, .F. ) ;
#7 = AXIS2_PLACEMENT_3D ( 'NONE', #159, #200, #238 ) ;
#8 = CARTESIAN_POINT ( 'NONE',  ( 500.0000000000000000, 0.0000000000000000000, 24.00000000000000400 ) ) ;
#9 = DATE_AND_TIME ( #118, #191 ) ;
#10 = CARTESIAN_POINT ( 'NONE',  ( -499.9999999999999400, 0.0000000000000000000, 0.0000000000000000000 ) ) ;
#11 = DIRECTION ( 'NONE',  ( -1.000000000000000000, -0.0000000000000000000, -0.0000000000000000000 ) ) ;
#12 = AXIS2_PLACEMENT_3D ( 'NONE', #115, #241, #161 ) ;
#13 = CARTESIAN_POINT ( 'NONE',  ( 500.0000000000000000, 0.0000000000000000000, 19.00000000000000400 ) ) ;
#14 = CC_DESIGN_APPROVAL ( #72, ( #75 ) ) ;
#15 = DIRECTION ( 'NONE',  ( 0.0000000000000000000, 0.0000000000000000000, -1.000000000000000000 ) ) ;
#16 = DATE_AND_TIME ( #108, #32 ) ;
#17 = CC_DESIGN_APPROVAL ( #68, ( #107 ) ) ;
#18 = VERTEX_POINT ( 'NONE', #140 ) ;
#19 = CALENDAR_DATE ( 2018, 17, 7 ) ;
#20 = PERSON_AND_ORGANIZATION ( #120, #42 ) ;
#21 = ADVANCED_FACE ( 'NONE', ( #137 ), #46, .F. ) ;
#22 = CIRCLE ( 'NONE', #210, 24.00000000000000400 ) ;
#23 = DIRECTION ( 'NONE',  ( 0.0000000000000000000, 0.0000000000000000000, -1.000000000000000000 ) ) ;
#24 = CLOSED_SHELL ( 'NONE', ( #235, #193, #102, #99, #57, #21 ) ) ;
#25 = DATE_AND_TIME ( #176, #162 ) ;
#26 = CC_DESIGN_DATE_AND_TIME_ASSIGNMENT ( #117, #67, ( #75 ) ) ;
#27 = CARTESIAN_POINT ( 'NONE',  ( -499.9999999999999400, 0.0000000000000000000, 19.00000000000000400 ) ) ;
#28 = FACE_OUTER_BOUND ( 'NONE', #155, .T. ) ;
#29 = AXIS2_PLACEMENT_3D ( 'NONE', #123, #112, #23 ) ;
#30 = DIRECTION ( 'NONE',  ( 0.0000000000000000000, 0.0000000000000000000, -1.000000000000000000 ) ) ;
#31 = DIRECTION ( 'NONE',  ( 1.000000000000000000, 0.0000000000000000000, 0.0000000000000000000 ) ) ;
#32 = LOCAL_TIME ( 10, 19, 34.00000000000000000, #4 ) ;
#33 = CARTESIAN_POINT ( 'NONE',  ( 500.0000000000000000, 0.0000000000000000000, 0.0000000000000000000 ) ) ;
#34 = FACE_BOUND ( 'NONE', #228, .T. ) ;
#35 = CYLINDRICAL_SURFACE ( 'NONE', #63, 24.00000000000000400 ) ;
#36 = EDGE_LOOP ( 'NONE', ( #86, #53 ) ) ;
#37 = EDGE_CURVE ( 'NONE', #114, #109, #227, .T. ) ;
#38 = EDGE_LOOP ( 'NONE', ( #168, #150 ) ) ;
#39 = AXIS2_PLACEMENT_3D ( 'NONE', #45, #44, #77 ) ;
#40 = AXIS2_PLACEMENT_3D ( 'NONE', #33, #11, #64 ) ;
#41 = VERTEX_POINT ( 'NONE', #27 ) ;
#42 = ORGANIZATION ( 'UNSPECIFIED', 'UNSPECIFIED', '' ) ;
#43 = ORIENTED_EDGE ( 'NONE', *, *, #88, .T. ) ;
#44 = DIRECTION ( 'NONE',  ( 1.000000000000000000, 0.0000000000000000000, 0.0000000000000000000 ) ) ;
#45 = CARTESIAN_POINT ( 'NONE',  ( -499.9999999999999400, 0.0000000000000000000, 0.0000000000000000000 ) ) ;
#46 = CYLINDRICAL_SURFACE ( 'NONE', #7, 19.00000000000000400 ) ;
#47 = PLANE ( 'NONE',  #160 ) ;
#48 = DIRECTION ( 'NONE',  ( -1.000000000000000000, -0.0000000000000000000, -0.0000000000000000000 ) ) ;
#49 = PERSON_AND_ORGANIZATION_ROLE ( 'design_supplier' ) ;
#50 = CARTESIAN_POINT ( 'NONE',  ( -499.9999999999999400, 2.326828918379971400E-015, -19.00000000000000400 ) ) ;
#51 = DIRECTION ( 'NONE',  ( 1.000000000000000000, 0.0000000000000000000, 0.0000000000000000000 ) ) ;
#52 = APPROVAL_STATUS ( 'not_yet_approved' ) ;
#53 = ORIENTED_EDGE ( 'NONE', *, *, #217, .F. ) ;
#54 = SHAPE_DEFINITION_REPRESENTATION ( #180, #92 ) ;
#55 = ORIENTED_EDGE ( 'NONE', *, *, #1, .T. ) ;
#56 = AXIS2_PLACEMENT_3D ( 'NONE', #10, #113, #148 ) ;
#57 = ADVANCED_FACE ( 'NONE', ( #199 ), #70, .T. ) ;
#58 = EDGE_CURVE ( 'NONE', #18, #195, #22, .T. ) ;
#59 = CARTESIAN_POINT ( 'NONE',  ( 500.0000000000000000, 0.0000000000000000000, 0.0000000000000000000 ) ) ;
#60 = CALENDAR_DATE ( 2018, 17, 7 ) ;
#61 = CIRCLE ( 'NONE', #29, 19.00000000000000400 ) ;
#62 = CARTESIAN_POINT ( 'NONE',  ( 500.0000000000000000, 2.939152317953648300E-015, -24.00000000000000400 ) ) ;
#63 = AXIS2_PLACEMENT_3D ( 'NONE', #143, #48, #65 ) ;
#64 = DIRECTION ( 'NONE',  ( 0.0000000000000000000, 0.0000000000000000000, 1.000000000000000000 ) ) ;
#65 = DIRECTION ( 'NONE',  ( 0.0000000000000000000, 0.0000000000000000000, 1.000000000000000000 ) ) ;
#66 = CIRCLE ( 'NONE', #12, 19.00000000000000400 ) ;
#67 = DATE_TIME_ROLE ( 'creation_date' ) ;
#68 = APPROVAL ( #91, 'UNSPECIFIED' ) ;
#69 = APPROVAL_STATUS ( 'not_yet_approved' ) ;
#70 = CYLINDRICAL_SURFACE ( 'NONE', #216, 24.00000000000000400 ) ;
#71 = LINE ( 'NONE', #205, #139 ) ;
#72 = APPROVAL ( #52, 'UNSPECIFIED' ) ;
#73 = ORIENTED_EDGE ( 'NONE', *, *, #206, .F. ) ;
#74 = FACE_OUTER_BOUND ( 'NONE', #36, .T. ) ;
#75 = PRODUCT_DEFINITION ( 'UNKNOWN', '', #107, #215 ) ;
#76 = APPROVAL_PERSON_ORGANIZATION ( #172, #72, #207 ) ;
#77 = DIRECTION ( 'NONE',  ( 0.0000000000000000000, 0.0000000000000000000, -1.000000000000000000 ) ) ;
#78 = DIRECTION ( 'NONE',  ( 0.0000000000000000000, 0.0000000000000000000, -1.000000000000000000 ) ) ;
#79 = CARTESIAN_POINT ( 'NONE',  ( 500.0000000000000000, 0.0000000000000000000, 0.0000000000000000000 ) ) ;
#80 = DIRECTION ( 'NONE',  ( 0.0000000000000000000, 0.0000000000000000000, -1.000000000000000000 ) ) ;
#81 = LINE ( 'NONE', #218, #177 ) ;
#82 = ORIENTED_EDGE ( 'NONE', *, *, #178, .F. ) ;
#83 = DIRECTION ( 'NONE',  ( -1.000000000000000000, -0.0000000000000000000, -0.0000000000000000000 ) ) ;
#84 = EDGE_CURVE ( 'NONE', #169, #41, #81, .T. ) ;
#85 = DIRECTION ( 'NONE',  ( -1.000000000000000000, -0.0000000000000000000, -0.0000000000000000000 ) ) ;
#86 = ORIENTED_EDGE ( 'NONE', *, *, #58, .F. ) ;
#87 = AXIS2_PLACEMENT_3D ( 'NONE', #116, #31, #165 ) ;
#88 = EDGE_CURVE ( 'NONE', #41, #146, #61, .T. ) ;
#89 =( LENGTH_UNIT ( ) NAMED_UNIT ( * ) SI_UNIT ( .MILLI., .METRE. ) );
#90 = CC_DESIGN_PERSON_AND_ORGANIZATION_ASSIGNMENT ( #95, #187, ( #75 ) ) ;
#91 = APPROVAL_STATUS ( 'not_yet_approved' ) ;
#92 = ADVANCED_BREP_SHAPE_REPRESENTATION ( 'T2400101', ( #136, #171 ), #229 ) ;
#93 = VERTEX_POINT ( 'NONE', #125 ) ;
#94 = APPROVAL_ROLE ( '' ) ;
#95 = PERSON_AND_ORGANIZATION ( #120, #42 ) ;
#96 = EDGE_LOOP ( 'NONE', ( #212, #141, #211, #98 ) ) ;
#97 = AXIS2_PLACEMENT_3D ( 'NONE', #246, #222, #15 ) ;
#98 = ORIENTED_EDGE ( 'NONE', *, *, #234, .F. ) ;
#99 = ADVANCED_FACE ( 'NONE', ( #74, #34 ), #142, .F. ) ;
#100 = EDGE_LOOP ( 'NONE', ( #6, #132, #220, #243 ) ) ;
#101 = PRODUCT ( 'T2400101', 'T2400101', '', ( #204 ) ) ;
#102 = ADVANCED_FACE ( 'NONE', ( #240, #248 ), #47, .T. ) ;
#103 = COORDINATED_UNIVERSAL_TIME_OFFSET ( 0, 0, .AHEAD. ) ;
#104 = CC_DESIGN_PERSON_AND_ORGANIZATION_ASSIGNMENT ( #138, #249, ( #213 ) ) ;
#105 = AXIS2_PLACEMENT_3D ( 'NONE', #164, #223, #30 ) ;
#106 = CARTESIAN_POINT ( 'NONE',  ( 500.0000000000000000, 0.0000000000000000000, 24.00000000000000400 ) ) ;
#107 = PRODUCT_DEFINITION_FORMATION_WITH_SPECIFIED_SOURCE ( 'ANY', '', #101, .NOT_KNOWN. ) ;
#108 = CALENDAR_DATE ( 2018, 17, 7 ) ;
#109 = VERTEX_POINT ( 'NONE', #62 ) ;
#110 = CARTESIAN_POINT ( 'NONE',  ( -499.9999999999999400, 0.0000000000000000000, 0.0000000000000000000 ) ) ;
#111 = DIRECTION ( 'NONE',  ( -1.000000000000000000, -0.0000000000000000000, -0.0000000000000000000 ) ) ;
#112 = DIRECTION ( 'NONE',  ( 1.000000000000000000, 0.0000000000000000000, 0.0000000000000000000 ) ) ;
#113 = DIRECTION ( 'NONE',  ( 1.000000000000000000, 0.0000000000000000000, 0.0000000000000000000 ) ) ;
#114 = VERTEX_POINT ( 'NONE', #106 ) ;
#115 = CARTESIAN_POINT ( 'NONE',  ( 500.0000000000000000, 0.0000000000000000000, 0.0000000000000000000 ) ) ;
#116 = CARTESIAN_POINT ( 'NONE',  ( 500.0000000000000000, 0.0000000000000000000, 0.0000000000000000000 ) ) ;
#117 = DATE_AND_TIME ( #19, #156 ) ;
#118 = CALENDAR_DATE ( 2018, 17, 7 ) ;
#119 = CC_DESIGN_DATE_AND_TIME_ASSIGNMENT ( #9, #230, ( #213 ) ) ;
#120 = PERSON ( 'UNSPECIFIED', 'UNSPECIFIED', 'UNSPECIFIED', ('UNSPECIFIED'), ('UNSPECIFIED'), ('UNSPECIFIED') ) ;
#121 = ORIENTED_EDGE ( 'NONE', *, *, #234, .T. ) ;
#122 = ORIENTED_EDGE ( 'NONE', *, *, #130, .T. ) ;
#123 = CARTESIAN_POINT ( 'NONE',  ( -499.9999999999999400, 0.0000000000000000000, 0.0000000000000000000 ) ) ;
#124 = EDGE_CURVE ( 'NONE', #114, #18, #151, .T. ) ;
#125 = CARTESIAN_POINT ( 'NONE',  ( 500.0000000000000000, 2.326828918379971400E-015, -19.00000000000000400 ) ) ;
#126 = LINE ( 'NONE', #201, #190 ) ;
#127 = DIRECTION ( 'NONE',  ( -1.000000000000000000, -0.0000000000000000000, -0.0000000000000000000 ) ) ;
#128 =( NAMED_UNIT ( * ) SI_UNIT ( $, .STERADIAN. ) SOLID_ANGLE_UNIT ( ) );
#129 = CC_DESIGN_APPROVAL ( #233, ( #213 ) ) ;
#130 = EDGE_CURVE ( 'NONE', #93, #146, #71, .T. ) ;
#131 = APPLICATION_PROTOCOL_DEFINITION ( 'international standard', 'config_control_design', 1994, #245 ) ;
#132 = ORIENTED_EDGE ( 'NONE', *, *, #37, .F. ) ;
#133 = ORIENTED_EDGE ( 'NONE', *, *, #153, .F. ) ;
#134 = LOCAL_TIME ( 10, 19, 34.00000000000000000, #103 ) ;
#135 = CC_DESIGN_PERSON_AND_ORGANIZATION_ASSIGNMENT ( #189, #49, ( #107 ) ) ;
#136 = MANIFOLD_SOLID_BREP ( 'Extrude-Thin1', #24 ) ;
#137 = FACE_OUTER_BOUND ( 'NONE', #96, .T. ) ;
#138 = PERSON_AND_ORGANIZATION ( #120, #42 ) ;
#139 = VECTOR ( 'NONE', #85, 1000.000000000000000 ) ;
#140 = CARTESIAN_POINT ( 'NONE',  ( -499.9999999999999400, 0.0000000000000000000, 24.00000000000000400 ) ) ;
#141 = ORIENTED_EDGE ( 'NONE', *, *, #178, .T. ) ;
#142 = PLANE ( 'NONE',  #39 ) ;
#143 = CARTESIAN_POINT ( 'NONE',  ( 500.0000000000000000, 0.0000000000000000000, 0.0000000000000000000 ) ) ;
#144 = AXIS2_PLACEMENT_3D ( 'NONE', #59, #179, #80 ) ;
#145 =( NAMED_UNIT ( * ) PLANE_ANGLE_UNIT ( ) SI_UNIT ( $, .RADIAN. ) );
#146 = VERTEX_POINT ( 'NONE', #50 ) ;
#147 = APPLICATION_CONTEXT ( 'configuration controlled 3d designs of mechanical parts and assemblies' ) ;
#148 = DIRECTION ( 'NONE',  ( 0.0000000000000000000, 0.0000000000000000000, -1.000000000000000000 ) ) ;
#149 = CC_DESIGN_SECURITY_CLASSIFICATION ( #213, ( #107 ) ) ;
#150 = ORIENTED_EDGE ( 'NONE', *, *, #153, .T. ) ;
#151 = LINE ( 'NONE', #8, #174 ) ;
#152 = PERSON_AND_ORGANIZATION ( #120, #42 ) ;
#153 = EDGE_CURVE ( 'NONE', #109, #114, #192, .T. ) ;
#154 = COORDINATED_UNIVERSAL_TIME_OFFSET ( 0, 0, .AHEAD. ) ;
#155 = EDGE_LOOP ( 'NONE', ( #232, #122, #2, #221 ) ) ;
#156 = LOCAL_TIME ( 10, 19, 34.00000000000000000, #203 ) ;
#157 = APPROVAL_DATE_TIME ( #16, #233 ) ;
#158 = PRODUCT_RELATED_PRODUCT_CATEGORY ( 'detail', '', ( #101 ) ) ;
#159 = CARTESIAN_POINT ( 'NONE',  ( 500.0000000000000000, 0.0000000000000000000, 0.0000000000000000000 ) ) ;
#160 = AXIS2_PLACEMENT_3D ( 'NONE', #196, #214, #78 ) ;
#161 = DIRECTION ( 'NONE',  ( 0.0000000000000000000, 0.0000000000000000000, -1.000000000000000000 ) ) ;
#162 = LOCAL_TIME ( 10, 19, 34.00000000000000000, #208 ) ;
#163 = PERSON_AND_ORGANIZATION_ROLE ( 'creator' ) ;
#164 = CARTESIAN_POINT ( 'NONE',  ( -499.9999999999999400, 0.0000000000000000000, 0.0000000000000000000 ) ) ;
#165 = DIRECTION ( 'NONE',  ( 0.0000000000000000000, 0.0000000000000000000, -1.000000000000000000 ) ) ;
#166 = EDGE_LOOP ( 'NONE', ( #133, #55, #237, #231 ) ) ;
#167 = DATE_AND_TIME ( #60, #134 ) ;
#168 = ORIENTED_EDGE ( 'NONE', *, *, #37, .T. ) ;
#169 = VERTEX_POINT ( 'NONE', #13 ) ;
#170 = PERSON_AND_ORGANIZATION ( #120, #42 ) ;
#171 = AXIS2_PLACEMENT_3D ( 'NONE', #182, #244, #51 ) ;
#172 = PERSON_AND_ORGANIZATION ( #120, #42 ) ;
#173 = CYLINDRICAL_SURFACE ( 'NONE', #40, 19.00000000000000400 ) ;
#174 = VECTOR ( 'NONE', #185, 1000.000000000000000 ) ;
#175 = DIRECTION ( 'NONE',  ( 1.000000000000000000, 0.0000000000000000000, 0.0000000000000000000 ) ) ;
#176 = CALENDAR_DATE ( 2018, 17, 7 ) ;
#177 = VECTOR ( 'NONE', #111, 1000.000000000000000 ) ;
#178 = EDGE_CURVE ( 'NONE', #93, #169, #66, .T. ) ;
#179 = DIRECTION ( 'NONE',  ( 1.000000000000000000, 0.0000000000000000000, 0.0000000000000000000 ) ) ;
#180 = PRODUCT_DEFINITION_SHAPE ( 'NONE', 'NONE',  #75 ) ;
#181 = CIRCLE ( 'NONE', #87, 19.00000000000000400 ) ;
#182 = CARTESIAN_POINT ( 'NONE',  ( 0.0000000000000000000, 0.0000000000000000000, 0.0000000000000000000 ) ) ;
#183 = APPLICATION_PROTOCOL_DEFINITION ( 'international standard', 'config_control_design', 1994, #147 ) ;
#184 = CC_DESIGN_PERSON_AND_ORGANIZATION_ASSIGNMENT ( #20, #163, ( #107 ) ) ;
#185 = DIRECTION ( 'NONE',  ( -1.000000000000000000, -0.0000000000000000000, -0.0000000000000000000 ) ) ;
#186 = CIRCLE ( 'NONE', #105, 19.00000000000000400 ) ;
#187 = PERSON_AND_ORGANIZATION_ROLE ( 'creator' ) ;
#188 = FACE_OUTER_BOUND ( 'NONE', #166, .T. ) ;
#189 = PERSON_AND_ORGANIZATION ( #120, #42 ) ;
#190 = VECTOR ( 'NONE', #127, 1000.000000000000000 ) ;
#191 = LOCAL_TIME ( 10, 19, 34.00000000000000000, #154 ) ;
#192 = CIRCLE ( 'NONE', #97, 24.00000000000000400 ) ;
#193 = ADVANCED_FACE ( 'NONE', ( #188 ), #35, .T. ) ;
#194 = UNCERTAINTY_MEASURE_WITH_UNIT (LENGTH_MEASURE( 1.000000000000000100E-005 ), #89, 'distance_accuracy_value', 'NONE');
#195 = VERTEX_POINT ( 'NONE', #224 ) ;
#196 = CARTESIAN_POINT ( 'NONE',  ( 500.0000000000000000, 0.0000000000000000000, 0.0000000000000000000 ) ) ;
#197 = CC_DESIGN_PERSON_AND_ORGANIZATION_ASSIGNMENT ( #198, #226, ( #101 ) ) ;
#198 = PERSON_AND_ORGANIZATION ( #120, #42 ) ;
#199 = FACE_OUTER_BOUND ( 'NONE', #100, .T. ) ;
#200 = DIRECTION ( 'NONE',  ( -1.000000000000000000, -0.0000000000000000000, -0.0000000000000000000 ) ) ;
#201 = CARTESIAN_POINT ( 'NONE',  ( 500.0000000000000000, 2.939152317953648300E-015, -24.00000000000000400 ) ) ;
#202 = APPROVAL_ROLE ( '' ) ;
#203 = COORDINATED_UNIVERSAL_TIME_OFFSET ( 0, 0, .AHEAD. ) ;
#204 = MECHANICAL_CONTEXT ( 'NONE', #147, 'mechanical' ) ;
#205 = CARTESIAN_POINT ( 'NONE',  ( 500.0000000000000000, 2.326828918379971400E-015, -19.00000000000000400 ) ) ;
#206 = EDGE_CURVE ( 'NONE', #169, #93, #181, .T. ) ;
#207 = APPROVAL_ROLE ( '' ) ;
#208 = COORDINATED_UNIVERSAL_TIME_OFFSET ( 0, 0, .AHEAD. ) ;
#209 = SECURITY_CLASSIFICATION_LEVEL ( 'unclassified' ) ;
#210 = AXIS2_PLACEMENT_3D ( 'NONE', #110, #175, #239 ) ;
#211 = ORIENTED_EDGE ( 'NONE', *, *, #84, .T. ) ;
#212 = ORIENTED_EDGE ( 'NONE', *, *, #130, .F. ) ;
#213 = SECURITY_CLASSIFICATION ( '', '', #209 ) ;
#214 = DIRECTION ( 'NONE',  ( 1.000000000000000000, 0.0000000000000000000, 0.0000000000000000000 ) ) ;
#215 = DESIGN_CONTEXT ( 'detailed design', #245, 'design' ) ;
#216 = AXIS2_PLACEMENT_3D ( 'NONE', #79, #83, #219 ) ;
#217 = EDGE_CURVE ( 'NONE', #195, #18, #236, .T. ) ;
#218 = CARTESIAN_POINT ( 'NONE',  ( 500.0000000000000000, 0.0000000000000000000, 19.00000000000000400 ) ) ;
#219 = DIRECTION ( 'NONE',  ( 0.0000000000000000000, 0.0000000000000000000, 1.000000000000000000 ) ) ;
#220 = ORIENTED_EDGE ( 'NONE', *, *, #124, .T. ) ;
#221 = ORIENTED_EDGE ( 'NONE', *, *, #84, .F. ) ;
#222 = DIRECTION ( 'NONE',  ( 1.000000000000000000, 0.0000000000000000000, 0.0000000000000000000 ) ) ;
#223 = DIRECTION ( 'NONE',  ( 1.000000000000000000, 0.0000000000000000000, 0.0000000000000000000 ) ) ;
#224 = CARTESIAN_POINT ( 'NONE',  ( -499.9999999999999400, 2.939152317953648300E-015, -24.00000000000000400 ) ) ;
#225 = APPROVAL_DATE_TIME ( #167, #68 ) ;
#226 = PERSON_AND_ORGANIZATION_ROLE ( 'design_owner' ) ;
#227 = CIRCLE ( 'NONE', #144, 24.00000000000000400 ) ;
#228 = EDGE_LOOP ( 'NONE', ( #43, #121 ) ) ;
#229 =( GEOMETRIC_REPRESENTATION_CONTEXT ( 3 ) GLOBAL_UNCERTAINTY_ASSIGNED_CONTEXT ( ( #194 ) ) GLOBAL_UNIT_ASSIGNED_CONTEXT ( ( #89, #145, #128 ) ) REPRESENTATION_CONTEXT ( 'NONE', 'WORKASPACE' ) );
#230 = DATE_TIME_ROLE ( 'classification_date' ) ;
#231 = ORIENTED_EDGE ( 'NONE', *, *, #124, .F. ) ;
#232 = ORIENTED_EDGE ( 'NONE', *, *, #206, .T. ) ;
#233 = APPROVAL ( #69, 'UNSPECIFIED' ) ;
#234 = EDGE_CURVE ( 'NONE', #146, #41, #186, .T. ) ;
#235 = ADVANCED_FACE ( 'NONE', ( #28 ), #173, .F. ) ;
#236 = CIRCLE ( 'NONE', #56, 24.00000000000000400 ) ;
#237 = ORIENTED_EDGE ( 'NONE', *, *, #217, .T. ) ;
#238 = DIRECTION ( 'NONE',  ( 0.0000000000000000000, 0.0000000000000000000, 1.000000000000000000 ) ) ;
#239 = DIRECTION ( 'NONE',  ( 0.0000000000000000000, 0.0000000000000000000, -1.000000000000000000 ) ) ;
#240 = FACE_OUTER_BOUND ( 'NONE', #38, .T. ) ;
#241 = DIRECTION ( 'NONE',  ( 1.000000000000000000, 0.0000000000000000000, 0.0000000000000000000 ) ) ;
#242 = APPROVAL_PERSON_ORGANIZATION ( #152, #68, #202 ) ;
#243 = ORIENTED_EDGE ( 'NONE', *, *, #58, .T. ) ;
#244 = DIRECTION ( 'NONE',  ( 0.0000000000000000000, 0.0000000000000000000, 1.000000000000000000 ) ) ;
#245 = APPLICATION_CONTEXT ( 'configuration controlled 3d designs of mechanical parts and assemblies' ) ;
#246 = CARTESIAN_POINT ( 'NONE',  ( 500.0000000000000000, 0.0000000000000000000, 0.0000000000000000000 ) ) ;
#247 = APPROVAL_DATE_TIME ( #25, #72 ) ;
#248 = FACE_BOUND ( 'NONE', #5, .T. ) ;
#249 = PERSON_AND_ORGANIZATION_ROLE ( 'classification_officer' ) ;
ENDSEC;
END-ISO-10303-21;
