ISO-10303-21;
HEADER;
FILE_DESCRIPTION (( 'STEP AP203' ),
    '1' );
FILE_NAME ('T2400001.STEP',
    '2018-07-17T08:53:34',
    ( '' ),
    ( '' ),
    'SwSTEP 2.0',
    'SolidWorks 2016',
    '' );
FILE_SCHEMA (( 'CONFIG_CONTROL_DESIGN' ));
ENDSEC;

DATA;
#1 = CARTESIAN_POINT ( 'NONE',  ( 0.0000000000000000000, 0.0000000000000000000, 3000.000000000000000 ) ) ;
#2 = CC_DESIGN_APPROVAL ( #135, ( #29 ) ) ;
#3 = CARTESIAN_POINT ( 'NONE',  ( 24.14999999999999900, 2.957522019940857900E-015, -3000.000000000000000 ) ) ;
#4 = DIRECTION ( 'NONE',  ( 0.0000000000000000000, 0.0000000000000000000, 1.000000000000000000 ) ) ;
#5 = PERSON_AND_ORGANIZATION_ROLE ( 'design_supplier' ) ;
#6 = ORIENTED_EDGE ( 'NONE', *, *, #180, .F. ) ;
#7 = LINE ( 'NONE', #97, #31 ) ;
#8 = ORIENTED_EDGE ( 'NONE', *, *, #184, .F. ) ;
#9 = APPROVAL ( #80, 'UNSPECIFIED' ) ;
#10 = EDGE_CURVE ( 'NONE', #83, #72, #37, .T. ) ;
#11 = DATE_AND_TIME ( #181, #234 ) ;
#12 = DIRECTION ( 'NONE',  ( -1.000000000000000000, 0.0000000000000000000, 0.0000000000000000000 ) ) ;
#13 = EDGE_LOOP ( 'NONE', ( #45, #133 ) ) ;
#14 = EDGE_LOOP ( 'NONE', ( #209, #64 ) ) ;
#15 = ADVANCED_FACE ( 'NONE', ( #162 ), #86, .F. ) ;
#16 = AXIS2_PLACEMENT_3D ( 'NONE', #171, #53, #131 ) ;
#17 = CALENDAR_DATE ( 2018, 17, 7 ) ;
#18 = PLANE ( 'NONE',  #203 ) ;
#19 =( NAMED_UNIT ( * ) SI_UNIT ( $, .STERADIAN. ) SOLID_ANGLE_UNIT ( ) );
#20 = APPROVAL_ROLE ( '' ) ;
#21 = PERSON_AND_ORGANIZATION ( #43, #161 ) ;
#22 = VERTEX_POINT ( 'NONE', #70 ) ;
#23 = AXIS2_PLACEMENT_3D ( 'NONE', #151, #217, #196 ) ;
#24 = PERSON_AND_ORGANIZATION ( #43, #161 ) ;
#25 = ORIENTED_EDGE ( 'NONE', *, *, #155, .T. ) ;
#26 = DIRECTION ( 'NONE',  ( -0.0000000000000000000, -0.0000000000000000000, -1.000000000000000000 ) ) ;
#27 = CIRCLE ( 'NONE', #81, 24.14999999999999900 ) ;
#28 = DIRECTION ( 'NONE',  ( -1.000000000000000000, 0.0000000000000000000, 0.0000000000000000000 ) ) ;
#29 = PRODUCT_DEFINITION ( 'UNKNOWN', '', #146, #154 ) ;
#30 = DIRECTION ( 'NONE',  ( 0.0000000000000000000, 0.0000000000000000000, 1.000000000000000000 ) ) ;
#31 = VECTOR ( 'NONE', #74, 1000.000000000000000 ) ;
#32 = ADVANCED_FACE ( 'NONE', ( #91 ), #241, .T. ) ;
#33 = APPLICATION_CONTEXT ( 'configuration controlled 3d designs of mechanical parts and assemblies' ) ;
#34 = DIRECTION ( 'NONE',  ( 1.000000000000000000, 0.0000000000000000000, -0.0000000000000000000 ) ) ;
#35 = APPROVAL_DATE_TIME ( #230, #206 ) ;
#36 = DIRECTION ( 'NONE',  ( 0.0000000000000000000, 0.0000000000000000000, 1.000000000000000000 ) ) ;
#37 = CIRCLE ( 'NONE', #226, 24.14999999999999900 ) ;
#38 = DIRECTION ( 'NONE',  ( 1.000000000000000000, 0.0000000000000000000, 0.0000000000000000000 ) ) ;
#39 = APPLICATION_CONTEXT ( 'configuration controlled 3d designs of mechanical parts and assemblies' ) ;
#40 = DATE_TIME_ROLE ( 'creation_date' ) ;
#41 = EDGE_LOOP ( 'NONE', ( #189, #25, #229, #220 ) ) ;
#42 =( GEOMETRIC_REPRESENTATION_CONTEXT ( 3 ) GLOBAL_UNCERTAINTY_ASSIGNED_CONTEXT ( ( #122 ) ) GLOBAL_UNIT_ASSIGNED_CONTEXT ( ( #76, #134, #19 ) ) REPRESENTATION_CONTEXT ( 'NONE', 'WORKASPACE' ) );
#43 = PERSON ( 'UNSPECIFIED', 'UNSPECIFIED', 'UNSPECIFIED', ('UNSPECIFIED'), ('UNSPECIFIED'), ('UNSPECIFIED') ) ;
#44 = PRODUCT_DEFINITION_SHAPE ( 'NONE', 'NONE',  #29 ) ;
#45 = ORIENTED_EDGE ( 'NONE', *, *, #10, .T. ) ;
#46 = EDGE_CURVE ( 'NONE', #22, #221, #167, .T. ) ;
#47 = CARTESIAN_POINT ( 'NONE',  ( 0.0000000000000000000, 0.0000000000000000000, -3000.000000000000000 ) ) ;
#48 = COORDINATED_UNIVERSAL_TIME_OFFSET ( 0, 0, .AHEAD. ) ;
#49 = PLANE ( 'NONE',  #194 ) ;
#50 = ADVANCED_FACE ( 'NONE', ( #137, #239 ), #49, .T. ) ;
#51 = CIRCLE ( 'NONE', #16, 24.14999999999999900 ) ;
#52 = CC_DESIGN_PERSON_AND_ORGANIZATION_ASSIGNMENT ( #24, #57, ( #141 ) ) ;
#53 = DIRECTION ( 'NONE',  ( 0.0000000000000000000, 0.0000000000000000000, 1.000000000000000000 ) ) ;
#54 = DIRECTION ( 'NONE',  ( 1.000000000000000000, 0.0000000000000000000, 0.0000000000000000000 ) ) ;
#55 = VECTOR ( 'NONE', #143, 1000.000000000000000 ) ;
#56 = CALENDAR_DATE ( 2018, 17, 7 ) ;
#57 = PERSON_AND_ORGANIZATION_ROLE ( 'design_owner' ) ;
#58 = ORIENTED_EDGE ( 'NONE', *, *, #160, .T. ) ;
#59 = SECURITY_CLASSIFICATION_LEVEL ( 'unclassified' ) ;
#60 = COORDINATED_UNIVERSAL_TIME_OFFSET ( 0, 0, .AHEAD. ) ;
#61 = CC_DESIGN_DATE_AND_TIME_ASSIGNMENT ( #140, #222, ( #119 ) ) ;
#62 = EDGE_CURVE ( 'NONE', #221, #245, #156, .T. ) ;
#63 = CYLINDRICAL_SURFACE ( 'NONE', #166, 19.89999999999999900 ) ;
#64 = ORIENTED_EDGE ( 'NONE', *, *, #62, .T. ) ;
#65 = CC_DESIGN_DATE_AND_TIME_ASSIGNMENT ( #11, #40, ( #29 ) ) ;
#66 = DATE_AND_TIME ( #17, #71 ) ;
#67 = DIRECTION ( 'NONE',  ( 0.0000000000000000000, 0.0000000000000000000, 1.000000000000000000 ) ) ;
#68 = CARTESIAN_POINT ( 'NONE',  ( 0.0000000000000000000, 0.0000000000000000000, 3000.000000000000000 ) ) ;
#69 = DIRECTION ( 'NONE',  ( 0.0000000000000000000, 0.0000000000000000000, 1.000000000000000000 ) ) ;
#70 = CARTESIAN_POINT ( 'NONE',  ( 19.89999999999999900, 2.437047130303232800E-015, 3000.000000000000000 ) ) ;
#71 = LOCAL_TIME ( 9, 53, 34.00000000000000000, #60 ) ;
#72 = VERTEX_POINT ( 'NONE', #188 ) ;
#73 = APPLICATION_PROTOCOL_DEFINITION ( 'international standard', 'config_control_design', 1994, #33 ) ;
#74 = DIRECTION ( 'NONE',  ( -0.0000000000000000000, -0.0000000000000000000, -1.000000000000000000 ) ) ;
#75 = COORDINATED_UNIVERSAL_TIME_OFFSET ( 0, 0, .AHEAD. ) ;
#76 =( LENGTH_UNIT ( ) NAMED_UNIT ( * ) SI_UNIT ( .MILLI., .METRE. ) );
#77 = DIRECTION ( 'NONE',  ( 0.0000000000000000000, 0.0000000000000000000, 1.000000000000000000 ) ) ;
#78 = CIRCLE ( 'NONE', #23, 24.14999999999999900 ) ;
#79 = DIRECTION ( 'NONE',  ( 1.000000000000000000, 0.0000000000000000000, 0.0000000000000000000 ) ) ;
#80 = APPROVAL_STATUS ( 'not_yet_approved' ) ;
#81 = AXIS2_PLACEMENT_3D ( 'NONE', #96, #36, #149 ) ;
#82 = PERSON_AND_ORGANIZATION ( #43, #161 ) ;
#83 = VERTEX_POINT ( 'NONE', #169 ) ;
#84 = PERSON_AND_ORGANIZATION_ROLE ( 'creator' ) ;
#85 = LOCAL_TIME ( 9, 53, 34.00000000000000000, #90 ) ;
#86 = CYLINDRICAL_SURFACE ( 'NONE', #113, 19.89999999999999900 ) ;
#87 = EDGE_CURVE ( 'NONE', #118, #245, #183, .T. ) ;
#88 = FACE_OUTER_BOUND ( 'NONE', #201, .T. ) ;
#89 = ORIENTED_EDGE ( 'NONE', *, *, #46, .T. ) ;
#90 = COORDINATED_UNIVERSAL_TIME_OFFSET ( 0, 0, .AHEAD. ) ;
#91 = FACE_OUTER_BOUND ( 'NONE', #249, .T. ) ;
#92 = CC_DESIGN_PERSON_AND_ORGANIZATION_ASSIGNMENT ( #82, #84, ( #29 ) ) ;
#93 = DIRECTION ( 'NONE',  ( 0.0000000000000000000, 0.0000000000000000000, 1.000000000000000000 ) ) ;
#94 = EDGE_CURVE ( 'NONE', #245, #221, #191, .T. ) ;
#95 = CARTESIAN_POINT ( 'NONE',  ( -19.89999999999999900, 0.0000000000000000000, -3000.000000000000000 ) ) ;
#96 = CARTESIAN_POINT ( 'NONE',  ( 0.0000000000000000000, 0.0000000000000000000, 3000.000000000000000 ) ) ;
#97 = CARTESIAN_POINT ( 'NONE',  ( -24.14999999999999900, 0.0000000000000000000, 3000.000000000000000 ) ) ;
#98 = ORIENTED_EDGE ( 'NONE', *, *, #155, .F. ) ;
#99 = AXIS2_PLACEMENT_3D ( 'NONE', #47, #69, #213 ) ;
#100 = APPROVAL_STATUS ( 'not_yet_approved' ) ;
#101 = VECTOR ( 'NONE', #177, 1000.000000000000000 ) ;
#102 = PERSON_AND_ORGANIZATION ( #43, #161 ) ;
#103 = ADVANCED_BREP_SHAPE_REPRESENTATION ( 'T2400001', ( #144, #238 ), #42 ) ;
#104 = FACE_OUTER_BOUND ( 'NONE', #41, .T. ) ;
#105 = CC_DESIGN_PERSON_AND_ORGANIZATION_ASSIGNMENT ( #116, #200, ( #146 ) ) ;
#106 = ADVANCED_FACE ( 'NONE', ( #88 ), #157, .T. ) ;
#107 = FACE_BOUND ( 'NONE', #14, .T. ) ;
#108 = APPROVAL_PERSON_ORGANIZATION ( #187, #206, #20 ) ;
#109 = CARTESIAN_POINT ( 'NONE',  ( 0.0000000000000000000, 0.0000000000000000000, 3000.000000000000000 ) ) ;
#110 = CIRCLE ( 'NONE', #198, 19.89999999999999900 ) ;
#111 = VERTEX_POINT ( 'NONE', #3 ) ;
#112 = CARTESIAN_POINT ( 'NONE',  ( -19.89999999999999900, 0.0000000000000000000, 3000.000000000000000 ) ) ;
#113 = AXIS2_PLACEMENT_3D ( 'NONE', #214, #26, #12 ) ;
#114 = CARTESIAN_POINT ( 'NONE',  ( 24.14999999999999900, 2.957522019940857900E-015, 3000.000000000000000 ) ) ;
#115 = APPROVAL_ROLE ( '' ) ;
#116 = PERSON_AND_ORGANIZATION ( #43, #161 ) ;
#117 = VECTOR ( 'NONE', #147, 1000.000000000000000 ) ;
#118 = VERTEX_POINT ( 'NONE', #219 ) ;
#119 = SECURITY_CLASSIFICATION ( '', '', #59 ) ;
#120 = EDGE_CURVE ( 'NONE', #111, #205, #78, .T. ) ;
#121 = APPROVAL_DATE_TIME ( #66, #135 ) ;
#122 = UNCERTAINTY_MEASURE_WITH_UNIT (LENGTH_MEASURE( 1.000000000000000100E-005 ), #76, 'distance_accuracy_value', 'NONE');
#123 = PERSON_AND_ORGANIZATION ( #43, #161 ) ;
#124 = EDGE_CURVE ( 'NONE', #72, #83, #27, .T. ) ;
#125 = DIRECTION ( 'NONE',  ( -0.0000000000000000000, -0.0000000000000000000, -1.000000000000000000 ) ) ;
#126 = CARTESIAN_POINT ( 'NONE',  ( 0.0000000000000000000, 0.0000000000000000000, 3000.000000000000000 ) ) ;
#127 = ADVANCED_FACE ( 'NONE', ( #185, #107 ), #18, .F. ) ;
#128 = CC_DESIGN_SECURITY_CLASSIFICATION ( #119, ( #146 ) ) ;
#129 = CARTESIAN_POINT ( 'NONE',  ( 0.0000000000000000000, 0.0000000000000000000, 3000.000000000000000 ) ) ;
#130 = APPROVAL_DATE_TIME ( #243, #9 ) ;
#131 = DIRECTION ( 'NONE',  ( 1.000000000000000000, 0.0000000000000000000, 0.0000000000000000000 ) ) ;
#132 = APPLICATION_PROTOCOL_DEFINITION ( 'international standard', 'config_control_design', 1994, #39 ) ;
#133 = ORIENTED_EDGE ( 'NONE', *, *, #124, .T. ) ;
#134 =( NAMED_UNIT ( * ) PLANE_ANGLE_UNIT ( ) SI_UNIT ( $, .RADIAN. ) );
#135 = APPROVAL ( #235, 'UNSPECIFIED' ) ;
#136 = APPROVAL_ROLE ( '' ) ;
#137 = FACE_OUTER_BOUND ( 'NONE', #13, .T. ) ;
#138 = ORIENTED_EDGE ( 'NONE', *, *, #248, .T. ) ;
#139 = AXIS2_PLACEMENT_3D ( 'NONE', #145, #125, #28 ) ;
#140 = DATE_AND_TIME ( #56, #218 ) ;
#141 = PRODUCT ( 'T2400001', 'T2400001', '', ( #178 ) ) ;
#142 = ORIENTED_EDGE ( 'NONE', *, *, #160, .F. ) ;
#143 = DIRECTION ( 'NONE',  ( -0.0000000000000000000, -0.0000000000000000000, -1.000000000000000000 ) ) ;
#144 = MANIFOLD_SOLID_BREP ( 'Extrude-Thin1', #173 ) ;
#145 = CARTESIAN_POINT ( 'NONE',  ( 0.0000000000000000000, 0.0000000000000000000, 3000.000000000000000 ) ) ;
#146 = PRODUCT_DEFINITION_FORMATION_WITH_SPECIFIED_SOURCE ( 'ANY', '', #141, .NOT_KNOWN. ) ;
#147 = DIRECTION ( 'NONE',  ( -0.0000000000000000000, -0.0000000000000000000, -1.000000000000000000 ) ) ;
#148 = EDGE_LOOP ( 'NONE', ( #8, #98 ) ) ;
#149 = DIRECTION ( 'NONE',  ( 1.000000000000000000, 0.0000000000000000000, 0.0000000000000000000 ) ) ;
#150 = LINE ( 'NONE', #114, #101 ) ;
#151 = CARTESIAN_POINT ( 'NONE',  ( 0.0000000000000000000, 0.0000000000000000000, -3000.000000000000000 ) ) ;
#152 = CALENDAR_DATE ( 2018, 17, 7 ) ;
#153 = CARTESIAN_POINT ( 'NONE',  ( 0.0000000000000000000, 0.0000000000000000000, 0.0000000000000000000 ) ) ;
#154 = DESIGN_CONTEXT ( 'detailed design', #33, 'design' ) ;
#155 = EDGE_CURVE ( 'NONE', #22, #118, #110, .T. ) ;
#156 = CIRCLE ( 'NONE', #99, 19.89999999999999900 ) ;
#157 = CYLINDRICAL_SURFACE ( 'NONE', #228, 24.14999999999999900 ) ;
#158 = SHAPE_DEFINITION_REPRESENTATION ( #44, #103 ) ;
#159 = ORIENTED_EDGE ( 'NONE', *, *, #87, .F. ) ;
#160 = EDGE_CURVE ( 'NONE', #72, #111, #150, .T. ) ;
#161 = ORGANIZATION ( 'UNSPECIFIED', 'UNSPECIFIED', '' ) ;
#162 = FACE_OUTER_BOUND ( 'NONE', #202, .T. ) ;
#163 = AXIS2_PLACEMENT_3D ( 'NONE', #1, #4, #38 ) ;
#164 = PERSON_AND_ORGANIZATION ( #43, #161 ) ;
#165 = CARTESIAN_POINT ( 'NONE',  ( 0.0000000000000000000, 0.0000000000000000000, -3000.000000000000000 ) ) ;
#166 = AXIS2_PLACEMENT_3D ( 'NONE', #236, #216, #237 ) ;
#167 = LINE ( 'NONE', #210, #117 ) ;
#168 = ORIENTED_EDGE ( 'NONE', *, *, #120, .F. ) ;
#169 = CARTESIAN_POINT ( 'NONE',  ( -24.14999999999999900, 0.0000000000000000000, 3000.000000000000000 ) ) ;
#170 = DIRECTION ( 'NONE',  ( 1.000000000000000000, 0.0000000000000000000, 0.0000000000000000000 ) ) ;
#171 = CARTESIAN_POINT ( 'NONE',  ( 0.0000000000000000000, 0.0000000000000000000, -3000.000000000000000 ) ) ;
#172 = COORDINATED_UNIVERSAL_TIME_OFFSET ( 0, 0, .AHEAD. ) ;
#173 = CLOSED_SHELL ( 'NONE', ( #15, #106, #50, #127, #32, #246 ) ) ;
#174 = CARTESIAN_POINT ( 'NONE',  ( 19.89999999999999900, 2.437047130303232800E-015, -3000.000000000000000 ) ) ;
#175 = CARTESIAN_POINT ( 'NONE',  ( 0.0000000000000000000, 0.0000000000000000000, -3000.000000000000000 ) ) ;
#176 = CALENDAR_DATE ( 2018, 17, 7 ) ;
#177 = DIRECTION ( 'NONE',  ( -0.0000000000000000000, -0.0000000000000000000, -1.000000000000000000 ) ) ;
#178 = MECHANICAL_CONTEXT ( 'NONE', #39, 'mechanical' ) ;
#179 = CC_DESIGN_APPROVAL ( #9, ( #146 ) ) ;
#180 = EDGE_CURVE ( 'NONE', #83, #205, #7, .T. ) ;
#181 = CALENDAR_DATE ( 2018, 17, 7 ) ;
#182 = EDGE_LOOP ( 'NONE', ( #212, #168 ) ) ;
#183 = LINE ( 'NONE', #112, #55 ) ;
#184 = EDGE_CURVE ( 'NONE', #118, #22, #231, .T. ) ;
#185 = FACE_OUTER_BOUND ( 'NONE', #182, .T. ) ;
#186 = CC_DESIGN_PERSON_AND_ORGANIZATION_ASSIGNMENT ( #102, #5, ( #146 ) ) ;
#187 = PERSON_AND_ORGANIZATION ( #43, #161 ) ;
#188 = CARTESIAN_POINT ( 'NONE',  ( 24.14999999999999900, 2.957522019940857900E-015, 3000.000000000000000 ) ) ;
#189 = ORIENTED_EDGE ( 'NONE', *, *, #46, .F. ) ;
#190 = CC_DESIGN_PERSON_AND_ORGANIZATION_ASSIGNMENT ( #123, #204, ( #119 ) ) ;
#191 = CIRCLE ( 'NONE', #208, 19.89999999999999900 ) ;
#192 = ORIENTED_EDGE ( 'NONE', *, *, #94, .F. ) ;
#193 = DIRECTION ( 'NONE',  ( 0.0000000000000000000, 0.0000000000000000000, 1.000000000000000000 ) ) ;
#194 = AXIS2_PLACEMENT_3D ( 'NONE', #68, #30, #233 ) ;
#195 = APPROVAL_PERSON_ORGANIZATION ( #164, #9, #136 ) ;
#196 = DIRECTION ( 'NONE',  ( 1.000000000000000000, 0.0000000000000000000, 0.0000000000000000000 ) ) ;
#197 = DIRECTION ( 'NONE',  ( 0.0000000000000000000, 0.0000000000000000000, 1.000000000000000000 ) ) ;
#198 = AXIS2_PLACEMENT_3D ( 'NONE', #129, #77, #79 ) ;
#199 = CARTESIAN_POINT ( 'NONE',  ( -24.14999999999999900, 0.0000000000000000000, -3000.000000000000000 ) ) ;
#200 = PERSON_AND_ORGANIZATION_ROLE ( 'creator' ) ;
#201 = EDGE_LOOP ( 'NONE', ( #224, #58, #207, #6 ) ) ;
#202 = EDGE_LOOP ( 'NONE', ( #240, #89, #192, #159 ) ) ;
#203 = AXIS2_PLACEMENT_3D ( 'NONE', #175, #197, #34 ) ;
#204 = PERSON_AND_ORGANIZATION_ROLE ( 'classification_officer' ) ;
#205 = VERTEX_POINT ( 'NONE', #199 ) ;
#206 = APPROVAL ( #100, 'UNSPECIFIED' ) ;
#207 = ORIENTED_EDGE ( 'NONE', *, *, #120, .T. ) ;
#208 = AXIS2_PLACEMENT_3D ( 'NONE', #165, #67, #170 ) ;
#209 = ORIENTED_EDGE ( 'NONE', *, *, #94, .T. ) ;
#210 = CARTESIAN_POINT ( 'NONE',  ( 19.89999999999999900, 2.437047130303232800E-015, 3000.000000000000000 ) ) ;
#211 = DIRECTION ( 'NONE',  ( -1.000000000000000000, 0.0000000000000000000, 0.0000000000000000000 ) ) ;
#212 = ORIENTED_EDGE ( 'NONE', *, *, #248, .F. ) ;
#213 = DIRECTION ( 'NONE',  ( 1.000000000000000000, 0.0000000000000000000, 0.0000000000000000000 ) ) ;
#214 = CARTESIAN_POINT ( 'NONE',  ( 0.0000000000000000000, 0.0000000000000000000, 3000.000000000000000 ) ) ;
#215 = PRODUCT_RELATED_PRODUCT_CATEGORY ( 'detail', '', ( #141 ) ) ;
#216 = DIRECTION ( 'NONE',  ( -0.0000000000000000000, -0.0000000000000000000, -1.000000000000000000 ) ) ;
#217 = DIRECTION ( 'NONE',  ( 0.0000000000000000000, 0.0000000000000000000, 1.000000000000000000 ) ) ;
#218 = LOCAL_TIME ( 9, 53, 34.00000000000000000, #48 ) ;
#219 = CARTESIAN_POINT ( 'NONE',  ( -19.89999999999999900, 0.0000000000000000000, 3000.000000000000000 ) ) ;
#220 = ORIENTED_EDGE ( 'NONE', *, *, #62, .F. ) ;
#221 = VERTEX_POINT ( 'NONE', #174 ) ;
#222 = DATE_TIME_ROLE ( 'classification_date' ) ;
#223 = LOCAL_TIME ( 9, 53, 34.00000000000000000, #75 ) ;
#224 = ORIENTED_EDGE ( 'NONE', *, *, #124, .F. ) ;
#225 = ORIENTED_EDGE ( 'NONE', *, *, #180, .T. ) ;
#226 = AXIS2_PLACEMENT_3D ( 'NONE', #109, #193, #247 ) ;
#227 = APPROVAL_PERSON_ORGANIZATION ( #21, #135, #115 ) ;
#228 = AXIS2_PLACEMENT_3D ( 'NONE', #126, #244, #211 ) ;
#229 = ORIENTED_EDGE ( 'NONE', *, *, #87, .T. ) ;
#230 = DATE_AND_TIME ( #176, #85 ) ;
#231 = CIRCLE ( 'NONE', #163, 19.89999999999999900 ) ;
#232 = CC_DESIGN_APPROVAL ( #206, ( #119 ) ) ;
#233 = DIRECTION ( 'NONE',  ( 1.000000000000000000, 0.0000000000000000000, -0.0000000000000000000 ) ) ;
#234 = LOCAL_TIME ( 9, 53, 34.00000000000000000, #172 ) ;
#235 = APPROVAL_STATUS ( 'not_yet_approved' ) ;
#236 = CARTESIAN_POINT ( 'NONE',  ( 0.0000000000000000000, 0.0000000000000000000, 3000.000000000000000 ) ) ;
#237 = DIRECTION ( 'NONE',  ( -1.000000000000000000, 0.0000000000000000000, 0.0000000000000000000 ) ) ;
#238 = AXIS2_PLACEMENT_3D ( 'NONE', #153, #93, #54 ) ;
#239 = FACE_BOUND ( 'NONE', #148, .T. ) ;
#240 = ORIENTED_EDGE ( 'NONE', *, *, #184, .T. ) ;
#241 = CYLINDRICAL_SURFACE ( 'NONE', #139, 24.14999999999999900 ) ;
#242 = ORIENTED_EDGE ( 'NONE', *, *, #10, .F. ) ;
#243 = DATE_AND_TIME ( #152, #223 ) ;
#244 = DIRECTION ( 'NONE',  ( -0.0000000000000000000, -0.0000000000000000000, -1.000000000000000000 ) ) ;
#245 = VERTEX_POINT ( 'NONE', #95 ) ;
#246 = ADVANCED_FACE ( 'NONE', ( #104 ), #63, .F. ) ;
#247 = DIRECTION ( 'NONE',  ( 1.000000000000000000, 0.0000000000000000000, 0.0000000000000000000 ) ) ;
#248 = EDGE_CURVE ( 'NONE', #205, #111, #51, .T. ) ;
#249 = EDGE_LOOP ( 'NONE', ( #142, #242, #225, #138 ) ) ;
ENDSEC;
END-ISO-10303-21;
