ISO-10303-21;
HEADER;
FILE_DESCRIPTION (( 'STEP AP203' ),
    '1' );
FILE_NAME ('T24005.STEP',
    '2026-03-16T11:38:29',
    ( '' ),
    ( '' ),
    'SwSTEP 2.0',
    'SolidWorks 2025',
    '' );
FILE_SCHEMA (( 'CONFIG_CONTROL_DESIGN' ));
ENDSEC;

DATA;
#1 = EDGE_LOOP ( 'NONE', ( #113, #72 ) ) ;
#2 = MANIFOLD_SOLID_BREP ( 'Extrude-Thin1', #40 ) ;
#3 = AXIS2_PLACEMENT_3D ( 'NONE', #220, #38, #43 ) ;
#4 = FACE_OUTER_BOUND ( 'NONE', #179, .T. ) ;
#5 = PERSON_AND_ORGANIZATION ( #221, #117 ) ;
#6 = FACE_OUTER_BOUND ( 'NONE', #191, .T. ) ;
#7 = APPROVAL_PERSON_ORGANIZATION ( #199, #18, #141 ) ;
#8 = CARTESIAN_POINT ( 'NONE',  ( 19.89999999999999858, 2.437047130303232761E-15, 2500.000000000000000 ) ) ;
#9 = LOCAL_TIME ( 11, 38, 29.00000000000000000, #71 ) ;
#10 = DIRECTION ( 'NONE',  ( -0.000000000000000000, -0.000000000000000000, -1.000000000000000000 ) ) ;
#11 = CALENDAR_DATE ( 2026, 16, 3 ) ;
#12 = EDGE_LOOP ( 'NONE', ( #150, #93, #175, #173 ) ) ;
#13 = CYLINDRICAL_SURFACE ( 'NONE', #166, 24.14999999999999858 ) ;
#14 = ORIENTED_EDGE ( 'NONE', *, *, #235, .T. ) ;
#15 = FACE_OUTER_BOUND ( 'NONE', #200, .T. ) ;
#16 = LOCAL_TIME ( 11, 38, 29.00000000000000000, #224 ) ;
#17 = CC_DESIGN_PERSON_AND_ORGANIZATION_ASSIGNMENT ( #65, #30, ( #165 ) ) ;
#18 = APPROVAL ( #159, 'UNSPECIFIED' ) ;
#19 = CC_DESIGN_APPROVAL ( #237, ( #225 ) ) ;
#20 = DIRECTION ( 'NONE',  ( 1.000000000000000000, 0.000000000000000000, 0.000000000000000000 ) ) ;
#21 = CIRCLE ( 'NONE', #55, 24.14999999999999858 ) ;
#22 = FACE_OUTER_BOUND ( 'NONE', #12, .T. ) ;
#23 = DIRECTION ( 'NONE',  ( 1.000000000000000000, 0.000000000000000000, 0.000000000000000000 ) ) ;
#24 = EDGE_CURVE ( 'NONE', #74, #129, #42, .T. ) ;
#25 = CC_DESIGN_PERSON_AND_ORGANIZATION_ASSIGNMENT ( #5, #239, ( #154 ) ) ;
#26 = PERSON_AND_ORGANIZATION ( #221, #117 ) ;
#27 = CIRCLE ( 'NONE', #247, 24.14999999999999858 ) ;
#28 = CARTESIAN_POINT ( 'NONE',  ( 0.000000000000000000, 0.000000000000000000, -2500.000000000000000 ) ) ;
#29 = DIRECTION ( 'NONE',  ( 1.000000000000000000, 0.000000000000000000, 0.000000000000000000 ) ) ;
#30 = PERSON_AND_ORGANIZATION_ROLE ( 'creator' ) ;
#31 = DIRECTION ( 'NONE',  ( -1.000000000000000000, 0.000000000000000000, 0.000000000000000000 ) ) ;
#32 = CALENDAR_DATE ( 2026, 16, 3 ) ;
#33 = APPROVAL_DATE_TIME ( #145, #202 ) ;
#34 = ORIENTED_EDGE ( 'NONE', *, *, #114, .T. ) ;
#35 = DIRECTION ( 'NONE',  ( 1.000000000000000000, 0.000000000000000000, 0.000000000000000000 ) ) ;
#36 = EDGE_CURVE ( 'NONE', #129, #74, #76, .T. ) ;
#37 = ORIENTED_EDGE ( 'NONE', *, *, #235, .F. ) ;
#38 = DIRECTION ( 'NONE',  ( -0.000000000000000000, -0.000000000000000000, -1.000000000000000000 ) ) ;
#39 = ORIENTED_EDGE ( 'NONE', *, *, #151, .F. ) ;
#40 = CLOSED_SHELL ( 'NONE', ( #227, #139, #180, #246, #210, #184 ) ) ;
#41 = CARTESIAN_POINT ( 'NONE',  ( 0.000000000000000000, 0.000000000000000000, 2500.000000000000000 ) ) ;
#42 = CIRCLE ( 'NONE', #131, 19.89999999999999858 ) ;
#43 = DIRECTION ( 'NONE',  ( -1.000000000000000000, 0.000000000000000000, 0.000000000000000000 ) ) ;
#44 = DIRECTION ( 'NONE',  ( 0.000000000000000000, 0.000000000000000000, 1.000000000000000000 ) ) ;
#45 = APPROVAL_ROLE ( '' ) ;
#46 = DATE_TIME_ROLE ( 'classification_date' ) ;
#47 =( LENGTH_UNIT ( ) NAMED_UNIT ( * ) SI_UNIT ( .MILLI., .METRE. ) );
#48 = CARTESIAN_POINT ( 'NONE',  ( 0.000000000000000000, 0.000000000000000000, 2500.000000000000000 ) ) ;
#49 = LINE ( 'NONE', #8, #248 ) ;
#50 = AXIS2_PLACEMENT_3D ( 'NONE', #83, #144, #208 ) ;
#51 = PERSON_AND_ORGANIZATION_ROLE ( 'classification_officer' ) ;
#52 = DIRECTION ( 'NONE',  ( -0.000000000000000000, -0.000000000000000000, -1.000000000000000000 ) ) ;
#53 = APPROVAL_STATUS ( 'not_yet_approved' ) ;
#54 = ORIENTED_EDGE ( 'NONE', *, *, #24, .T. ) ;
#55 = AXIS2_PLACEMENT_3D ( 'NONE', #28, #229, #126 ) ;
#56 = CARTESIAN_POINT ( 'NONE',  ( 24.14999999999999858, 2.957522019940857930E-15, 2500.000000000000000 ) ) ;
#57 = ORIENTED_EDGE ( 'NONE', *, *, #79, .F. ) ;
#58 = PLANE ( 'NONE',  #78 ) ;
#59 = CC_DESIGN_SECURITY_CLASSIFICATION ( #225, ( #101 ) ) ;
#60 = AXIS2_PLACEMENT_3D ( 'NONE', #214, #109, #31 ) ;
#61 = CARTESIAN_POINT ( 'NONE',  ( 0.000000000000000000, 0.000000000000000000, 0.000000000000000000 ) ) ;
#62 = DIRECTION ( 'NONE',  ( 1.000000000000000000, 0.000000000000000000, 0.000000000000000000 ) ) ;
#63 = CC_DESIGN_DATE_AND_TIME_ASSIGNMENT ( #209, #107, ( #165 ) ) ;
#64 = CC_DESIGN_PERSON_AND_ORGANIZATION_ASSIGNMENT ( #206, #103, ( #101 ) ) ;
#65 = PERSON_AND_ORGANIZATION ( #221, #117 ) ;
#66 = CARTESIAN_POINT ( 'NONE',  ( 0.000000000000000000, 0.000000000000000000, -2500.000000000000000 ) ) ;
#67 = DIRECTION ( 'NONE',  ( 1.000000000000000000, 0.000000000000000000, -0.000000000000000000 ) ) ;
#68 = CALENDAR_DATE ( 2026, 16, 3 ) ;
#69 = EDGE_CURVE ( 'NONE', #116, #133, #185, .T. ) ;
#70 = DIRECTION ( 'NONE',  ( 0.000000000000000000, 0.000000000000000000, 1.000000000000000000 ) ) ;
#71 = COORDINATED_UNIVERSAL_TIME_OFFSET ( 0, 0, .AHEAD. ) ;
#72 = ORIENTED_EDGE ( 'NONE', *, *, #36, .F. ) ;
#73 = VECTOR ( 'NONE', #238, 1000.000000000000000 ) ;
#74 = VERTEX_POINT ( 'NONE', #169 ) ;
#75 = ORIENTED_EDGE ( 'NONE', *, *, #151, .T. ) ;
#76 = CIRCLE ( 'NONE', #197, 19.89999999999999858 ) ;
#77 = DIRECTION ( 'NONE',  ( 0.000000000000000000, 0.000000000000000000, 1.000000000000000000 ) ) ;
#78 = AXIS2_PLACEMENT_3D ( 'NONE', #41, #177, #198 ) ;
#79 = EDGE_CURVE ( 'NONE', #186, #217, #242, .T. ) ;
#80 = AXIS2_PLACEMENT_3D ( 'NONE', #61, #77, #163 ) ;
#81 = CARTESIAN_POINT ( 'NONE',  ( 0.000000000000000000, 0.000000000000000000, 2500.000000000000000 ) ) ;
#82 = SECURITY_CLASSIFICATION_LEVEL ( 'unclassified' ) ;
#83 = CARTESIAN_POINT ( 'NONE',  ( 0.000000000000000000, 0.000000000000000000, -2500.000000000000000 ) ) ;
#84 = CARTESIAN_POINT ( 'NONE',  ( 19.89999999999999858, 2.437047130303232761E-15, 2500.000000000000000 ) ) ;
#85 = PERSON_AND_ORGANIZATION ( #221, #117 ) ;
#86 = ORIENTED_EDGE ( 'NONE', *, *, #135, .T. ) ;
#87 = APPROVAL_ROLE ( '' ) ;
#88 = EDGE_LOOP ( 'NONE', ( #176, #110 ) ) ;
#89 = DATE_AND_TIME ( #130, #9 ) ;
#90 = DIRECTION ( 'NONE',  ( -1.000000000000000000, 0.000000000000000000, 0.000000000000000000 ) ) ;
#91 = EDGE_CURVE ( 'NONE', #129, #194, #49, .T. ) ;
#92 = CC_DESIGN_APPROVAL ( #202, ( #101 ) ) ;
#93 = ORIENTED_EDGE ( 'NONE', *, *, #36, .T. ) ;
#94 = ORIENTED_EDGE ( 'NONE', *, *, #91, .T. ) ;
#95 = FACE_BOUND ( 'NONE', #1, .T. ) ;
#96 = AXIS2_PLACEMENT_3D ( 'NONE', #118, #115, #62 ) ;
#97 = ORIENTED_EDGE ( 'NONE', *, *, #114, .F. ) ;
#98 = APPLICATION_CONTEXT ( 'configuration controlled 3d designs of mechanical parts and assemblies' ) ;
#99 = SHAPE_DEFINITION_REPRESENTATION ( #249, #244 ) ;
#100 = CIRCLE ( 'NONE', #96, 24.14999999999999858 ) ;
#101 = PRODUCT_DEFINITION_FORMATION_WITH_SPECIFIED_SOURCE ( 'ANY', '', #154, .NOT_KNOWN. ) ;
#102 = CARTESIAN_POINT ( 'NONE',  ( -24.14999999999999858, 0.000000000000000000, 2500.000000000000000 ) ) ;
#103 = PERSON_AND_ORGANIZATION_ROLE ( 'creator' ) ;
#104 = CARTESIAN_POINT ( 'NONE',  ( 0.000000000000000000, 0.000000000000000000, -2500.000000000000000 ) ) ;
#105 = PERSON_AND_ORGANIZATION ( #221, #117 ) ;
#106 = ORIENTED_EDGE ( 'NONE', *, *, #69, .T. ) ;
#107 = DATE_TIME_ROLE ( 'creation_date' ) ;
#108 = ORIENTED_EDGE ( 'NONE', *, *, #164, .F. ) ;
#109 = DIRECTION ( 'NONE',  ( -0.000000000000000000, -0.000000000000000000, -1.000000000000000000 ) ) ;
#110 = ORIENTED_EDGE ( 'NONE', *, *, #196, .T. ) ;
#111 = EDGE_LOOP ( 'NONE', ( #57, #213, #106, #14 ) ) ;
#112 = APPLICATION_PROTOCOL_DEFINITION ( 'international standard', 'config_control_design', 1994, #98 ) ;
#113 = ORIENTED_EDGE ( 'NONE', *, *, #24, .F. ) ;
#114 = EDGE_CURVE ( 'NONE', #217, #133, #241, .T. ) ;
#115 = DIRECTION ( 'NONE',  ( 0.000000000000000000, 0.000000000000000000, 1.000000000000000000 ) ) ;
#116 = VERTEX_POINT ( 'NONE', #102 ) ;
#117 = ORGANIZATION ( 'UNSPECIFIED', 'UNSPECIFIED', '' ) ;
#118 = CARTESIAN_POINT ( 'NONE',  ( 0.000000000000000000, 0.000000000000000000, 2500.000000000000000 ) ) ;
#119 = LOCAL_TIME ( 11, 38, 29.00000000000000000, #189 ) ;
#120 = DATE_AND_TIME ( #125, #16 ) ;
#121 = DIRECTION ( 'NONE',  ( -0.000000000000000000, -0.000000000000000000, -1.000000000000000000 ) ) ;
#122 = APPROVAL_DATE_TIME ( #89, #237 ) ;
#123 = DIRECTION ( 'NONE',  ( -1.000000000000000000, 0.000000000000000000, 0.000000000000000000 ) ) ;
#124 = DIRECTION ( 'NONE',  ( -0.000000000000000000, -0.000000000000000000, -1.000000000000000000 ) ) ;
#125 = CALENDAR_DATE ( 2026, 16, 3 ) ;
#126 = DIRECTION ( 'NONE',  ( 1.000000000000000000, 0.000000000000000000, 0.000000000000000000 ) ) ;
#127 = CARTESIAN_POINT ( 'NONE',  ( 0.000000000000000000, 0.000000000000000000, 2500.000000000000000 ) ) ;
#128 = APPROVAL_STATUS ( 'not_yet_approved' ) ;
#129 = VERTEX_POINT ( 'NONE', #84 ) ;
#130 = CALENDAR_DATE ( 2026, 16, 3 ) ;
#131 = AXIS2_PLACEMENT_3D ( 'NONE', #81, #245, #167 ) ;
#132 = CARTESIAN_POINT ( 'NONE',  ( 0.000000000000000000, 0.000000000000000000, 2500.000000000000000 ) ) ;
#133 = VERTEX_POINT ( 'NONE', #211 ) ;
#134 = EDGE_CURVE ( 'NONE', #157, #194, #174, .T. ) ;
#135 = EDGE_CURVE ( 'NONE', #116, #186, #27, .T. ) ;
#136 = DESIGN_CONTEXT ( 'detailed design', #215, 'design' ) ;
#137 =( NAMED_UNIT ( * ) SI_UNIT ( $, .STERADIAN. ) SOLID_ANGLE_UNIT ( ) );
#138 = APPROVAL_PERSON_ORGANIZATION ( #85, #202, #45 ) ;
#139 = ADVANCED_FACE ( 'NONE', ( #4 ), #161, .T. ) ;
#140 = VECTOR ( 'NONE', #188, 1000.000000000000000 ) ;
#141 = APPROVAL_ROLE ( '' ) ;
#142 = DIRECTION ( 'NONE',  ( 0.000000000000000000, 0.000000000000000000, 1.000000000000000000 ) ) ;
#143 = CARTESIAN_POINT ( 'NONE',  ( -24.14999999999999858, 0.000000000000000000, 2500.000000000000000 ) ) ;
#144 = DIRECTION ( 'NONE',  ( 0.000000000000000000, 0.000000000000000000, 1.000000000000000000 ) ) ;
#145 = DATE_AND_TIME ( #11, #207 ) ;
#146 = CARTESIAN_POINT ( 'NONE',  ( 19.89999999999999858, 2.437047130303232761E-15, -2500.000000000000000 ) ) ;
#147 = CARTESIAN_POINT ( 'NONE',  ( 24.14999999999999858, 2.957522019940857930E-15, 2500.000000000000000 ) ) ;
#148 = DATE_AND_TIME ( #68, #119 ) ;
#149 = APPROVAL_DATE_TIME ( #120, #18 ) ;
#150 = ORIENTED_EDGE ( 'NONE', *, *, #91, .F. ) ;
#151 = EDGE_CURVE ( 'NONE', #186, #116, #100, .T. ) ;
#152 =( GEOMETRIC_REPRESENTATION_CONTEXT ( 3 ) GLOBAL_UNCERTAINTY_ASSIGNED_CONTEXT ( ( #168 ) ) GLOBAL_UNIT_ASSIGNED_CONTEXT ( ( #47, #182, #137 ) ) REPRESENTATION_CONTEXT ( 'NONE', 'WORKASPACE' ) );
#153 = CC_DESIGN_APPROVAL ( #18, ( #165 ) ) ;
#154 = PRODUCT ( 'T24005', 'T24005', '', ( #216 ) ) ;
#155 = EDGE_LOOP ( 'NONE', ( #86, #75 ) ) ;
#156 = CC_DESIGN_PERSON_AND_ORGANIZATION_ASSIGNMENT ( #26, #51, ( #225 ) ) ;
#157 = VERTEX_POINT ( 'NONE', #193 ) ;
#158 = CARTESIAN_POINT ( 'NONE',  ( -19.89999999999999858, 0.000000000000000000, 2500.000000000000000 ) ) ;
#159 = APPROVAL_STATUS ( 'not_yet_approved' ) ;
#160 = ORIENTED_EDGE ( 'NONE', *, *, #79, .T. ) ;
#161 = CYLINDRICAL_SURFACE ( 'NONE', #3, 24.14999999999999858 ) ;
#162 = DIRECTION ( 'NONE',  ( 0.000000000000000000, 0.000000000000000000, 1.000000000000000000 ) ) ;
#163 = DIRECTION ( 'NONE',  ( 1.000000000000000000, 0.000000000000000000, 0.000000000000000000 ) ) ;
#164 = EDGE_CURVE ( 'NONE', #74, #157, #201, .T. ) ;
#165 = PRODUCT_DEFINITION ( 'UNKNOWN', '', #101, #136 ) ;
#166 = AXIS2_PLACEMENT_3D ( 'NONE', #132, #10, #90 ) ;
#167 = DIRECTION ( 'NONE',  ( 1.000000000000000000, 0.000000000000000000, 0.000000000000000000 ) ) ;
#168 = UNCERTAINTY_MEASURE_WITH_UNIT (LENGTH_MEASURE( 1.000000000000000082E-05 ), #47, 'distance_accuracy_value', 'NONE');
#169 = CARTESIAN_POINT ( 'NONE',  ( -19.89999999999999858, 0.000000000000000000, 2500.000000000000000 ) ) ;
#170 = PRODUCT_RELATED_PRODUCT_CATEGORY ( 'detail', '', ( #154 ) ) ;
#171 = CARTESIAN_POINT ( 'NONE',  ( 24.14999999999999858, 2.957522019940857930E-15, -2500.000000000000000 ) ) ;
#172 = APPROVAL_PERSON_ORGANIZATION ( #212, #237, #87 ) ;
#173 = ORIENTED_EDGE ( 'NONE', *, *, #196, .F. ) ;
#174 = CIRCLE ( 'NONE', #183, 19.89999999999999858 ) ;
#175 = ORIENTED_EDGE ( 'NONE', *, *, #164, .T. ) ;
#176 = ORIENTED_EDGE ( 'NONE', *, *, #134, .T. ) ;
#177 = DIRECTION ( 'NONE',  ( 0.000000000000000000, 0.000000000000000000, 1.000000000000000000 ) ) ;
#178 = CIRCLE ( 'NONE', #240, 19.89999999999999858 ) ;
#179 = EDGE_LOOP ( 'NONE', ( #39, #160, #34, #230 ) ) ;
#180 = ADVANCED_FACE ( 'NONE', ( #204, #95 ), #58, .T. ) ;
#181 = CC_DESIGN_DATE_AND_TIME_ASSIGNMENT ( #148, #46, ( #225 ) ) ;
#182 =( NAMED_UNIT ( * ) PLANE_ANGLE_UNIT ( ) SI_UNIT ( $, .RADIAN. ) );
#183 = AXIS2_PLACEMENT_3D ( 'NONE', #104, #70, #23 ) ;
#184 = ADVANCED_FACE ( 'NONE', ( #22 ), #190, .F. ) ;
#185 = LINE ( 'NONE', #143, #140 ) ;
#186 = VERTEX_POINT ( 'NONE', #56 ) ;
#187 = FACE_OUTER_BOUND ( 'NONE', #111, .T. ) ;
#188 = DIRECTION ( 'NONE',  ( -0.000000000000000000, -0.000000000000000000, -1.000000000000000000 ) ) ;
#189 = COORDINATED_UNIVERSAL_TIME_OFFSET ( 0, 0, .AHEAD. ) ;
#190 = CYLINDRICAL_SURFACE ( 'NONE', #60, 19.89999999999999858 ) ;
#191 = EDGE_LOOP ( 'NONE', ( #37, #97 ) ) ;
#192 = DIRECTION ( 'NONE',  ( 0.000000000000000000, 0.000000000000000000, 1.000000000000000000 ) ) ;
#193 = CARTESIAN_POINT ( 'NONE',  ( -19.89999999999999858, 0.000000000000000000, -2500.000000000000000 ) ) ;
#194 = VERTEX_POINT ( 'NONE', #146 ) ;
#195 = CARTESIAN_POINT ( 'NONE',  ( 0.000000000000000000, 0.000000000000000000, 2500.000000000000000 ) ) ;
#196 = EDGE_CURVE ( 'NONE', #194, #157, #178, .T. ) ;
#197 = AXIS2_PLACEMENT_3D ( 'NONE', #127, #44, #29 ) ;
#198 = DIRECTION ( 'NONE',  ( 1.000000000000000000, 0.000000000000000000, -0.000000000000000000 ) ) ;
#199 = PERSON_AND_ORGANIZATION ( #221, #117 ) ;
#200 = EDGE_LOOP ( 'NONE', ( #54, #94, #236, #108 ) ) ;
#201 = LINE ( 'NONE', #158, #73 ) ;
#202 = APPROVAL ( #53, 'UNSPECIFIED' ) ;
#203 = APPLICATION_PROTOCOL_DEFINITION ( 'international standard', 'config_control_design', 1994, #215 ) ;
#204 = FACE_OUTER_BOUND ( 'NONE', #155, .T. ) ;
#205 = COORDINATED_UNIVERSAL_TIME_OFFSET ( 0, 0, .AHEAD. ) ;
#206 = PERSON_AND_ORGANIZATION ( #221, #117 ) ;
#207 = LOCAL_TIME ( 11, 38, 29.00000000000000000, #205 ) ;
#208 = DIRECTION ( 'NONE',  ( 1.000000000000000000, 0.000000000000000000, 0.000000000000000000 ) ) ;
#209 = DATE_AND_TIME ( #32, #219 ) ;
#210 = ADVANCED_FACE ( 'NONE', ( #187 ), #13, .T. ) ;
#211 = CARTESIAN_POINT ( 'NONE',  ( -24.14999999999999858, 0.000000000000000000, -2500.000000000000000 ) ) ;
#212 = PERSON_AND_ORGANIZATION ( #221, #117 ) ;
#213 = ORIENTED_EDGE ( 'NONE', *, *, #135, .F. ) ;
#214 = CARTESIAN_POINT ( 'NONE',  ( 0.000000000000000000, 0.000000000000000000, 2500.000000000000000 ) ) ;
#215 = APPLICATION_CONTEXT ( 'configuration controlled 3d designs of mechanical parts and assemblies' ) ;
#216 = MECHANICAL_CONTEXT ( 'NONE', #98, 'mechanical' ) ;
#217 = VERTEX_POINT ( 'NONE', #171 ) ;
#218 = VECTOR ( 'NONE', #121, 1000.000000000000000 ) ;
#219 = LOCAL_TIME ( 11, 38, 29.00000000000000000, #222 ) ;
#220 = CARTESIAN_POINT ( 'NONE',  ( 0.000000000000000000, 0.000000000000000000, 2500.000000000000000 ) ) ;
#221 = PERSON ( 'UNSPECIFIED', 'UNSPECIFIED', 'UNSPECIFIED', ('UNSPECIFIED'), ('UNSPECIFIED'), ('UNSPECIFIED') ) ;
#222 = COORDINATED_UNIVERSAL_TIME_OFFSET ( 0, 0, .AHEAD. ) ;
#223 = PLANE ( 'NONE',  #233 ) ;
#224 = COORDINATED_UNIVERSAL_TIME_OFFSET ( 0, 0, .AHEAD. ) ;
#225 = SECURITY_CLASSIFICATION ( '', '', #82 ) ;
#226 = PERSON_AND_ORGANIZATION_ROLE ( 'design_supplier' ) ;
#227 = ADVANCED_FACE ( 'NONE', ( #15 ), #234, .F. ) ;
#228 = CC_DESIGN_PERSON_AND_ORGANIZATION_ASSIGNMENT ( #105, #226, ( #101 ) ) ;
#229 = DIRECTION ( 'NONE',  ( 0.000000000000000000, 0.000000000000000000, 1.000000000000000000 ) ) ;
#230 = ORIENTED_EDGE ( 'NONE', *, *, #69, .F. ) ;
#231 = CARTESIAN_POINT ( 'NONE',  ( 0.000000000000000000, 0.000000000000000000, -2500.000000000000000 ) ) ;
#232 = AXIS2_PLACEMENT_3D ( 'NONE', #48, #52, #123 ) ;
#233 = AXIS2_PLACEMENT_3D ( 'NONE', #66, #142, #67 ) ;
#234 = CYLINDRICAL_SURFACE ( 'NONE', #232, 19.89999999999999858 ) ;
#235 = EDGE_CURVE ( 'NONE', #133, #217, #21, .T. ) ;
#236 = ORIENTED_EDGE ( 'NONE', *, *, #134, .F. ) ;
#237 = APPROVAL ( #128, 'UNSPECIFIED' ) ;
#238 = DIRECTION ( 'NONE',  ( -0.000000000000000000, -0.000000000000000000, -1.000000000000000000 ) ) ;
#239 = PERSON_AND_ORGANIZATION_ROLE ( 'design_owner' ) ;
#240 = AXIS2_PLACEMENT_3D ( 'NONE', #231, #192, #35 ) ;
#241 = CIRCLE ( 'NONE', #50, 24.14999999999999858 ) ;
#242 = LINE ( 'NONE', #147, #218 ) ;
#243 = FACE_BOUND ( 'NONE', #88, .T. ) ;
#244 = ADVANCED_BREP_SHAPE_REPRESENTATION ( 'T24005', ( #2, #80 ), #152 ) ;
#245 = DIRECTION ( 'NONE',  ( 0.000000000000000000, 0.000000000000000000, 1.000000000000000000 ) ) ;
#246 = ADVANCED_FACE ( 'NONE', ( #6, #243 ), #223, .F. ) ;
#247 = AXIS2_PLACEMENT_3D ( 'NONE', #195, #162, #20 ) ;
#248 = VECTOR ( 'NONE', #124, 1000.000000000000000 ) ;
#249 = PRODUCT_DEFINITION_SHAPE ( 'NONE', 'NONE',  #165 ) ;
ENDSEC;
END-ISO-10303-21;
